Meu Alvo

Banda GDA

Tom: Bb
Intro: 
 
E|-----------------------------------------| 
B|---4-4-3-------4-4-3-------4-4-3---3-----| 
G|----------5-3---------5-3---------5-3----| 
D|-----------------------------------------| 
A|-----------------------------------------| 
E|-----------------------------------------| 
 

 
E|-----------------------------------------------------------| 
B|-16161616-15--------16161616-15--------16161616-15---15----| 
G|-------------17-15--------------17-15--------------17--15--| 
D|-----------------------------------------------------------| 
A|-----------------------------------------------------------| 
E|-----------------------------------------------------------| 
 

 
E|-------------------------------------------------| 
B|--444-444-333------------444-444-333----------3--| 
G|--------------555-33-535--------------555-33-5-3-|    (2x) 
D|-------------------------------------------------| 
A|-------------------------------------------------| 
E|-------------------------------------------------| 
 
Intro: Bb D# Gm D# Bb Gm Estou subindo pra um lugar mais alto Bb eu ja queimei as pontes com o passado Gm e os meus olhos
 
E|--------------------------------| 
B|-----------------7-77-77-77-77-7| 
G|-7-77-77-77-77-7----------------| 
D|--------------------------------| 
A|--------------------------------| 
E|--------------------------------| 
 
Eb F# Bb vejo um futuro tudo novo se fez, tudo novo se faz F F4 F Gm e dessa estrada.......eu não me desvio nunca mais F/A Eb estou firme eu não me desvio nunca mais Bb vou avançar eu vou crescer, (2x) F/A ninguem vai me deter Gm meu alvo é Cristo Eb meu alvo é Cristo
 
E|-------------------------------------------------| 
B|--444-444-333------------444-444-333----------3--| 
G|--------------555-33-535--------------555-33-5-3-|    (2x) 
D|-------------------------------------------------| 
A|-------------------------------------------------| 
E|-------------------------------------------------| 
 
Bb Gm Estou subindo pra um lugar mais alto Bb eu já desisti de andar sozinho Gm Cristo vive em mim
 
E|--------------------------------| 
B|-----------------7-77-77-77-77-7| 
G|-7-77-77-77-77-7----------------| 
D|--------------------------------| 
A|--------------------------------| 
E|--------------------------------| 
 
Eb F# Bb e os meus pés estão no caminho, estão no caminho F F4 F Gm e dessa estrada.......eu não me desvio nunca mais F/A Eb estou firme eu não me desvio nunca mais

Compartilhe esta música: novo

QR Code
Copiar