Volte Pra Deus

Banda Freedom

Tom: C
Intro 

Riff 01: 
D|----------------------------------|--------------------------------| 
A|----------------------------------|--------------------------------| 
F|----------------------------------|--------------------------------| 
C|----------------------------------|--------------------------------| 
G|---3-1-3-----------3-1-3------3-5-|---3-1-3------------3---6---5---| 
D|-0-------0-2-1-2-0-------000--1-3-|-0-------0-2-1-2-00---0---0---3-| 
                                                                       2x 
D|----------------------------------|--------------------------------| 
A|----------------------------------|--------------------------------| 
F|----------------------------------|--------------------------------| 
C|----------------------------------|--------------------------------| 
G|---3-1-3-----------3-1-3------3-5-|---3-1-3--------------5-5-3-----| 
D|-0-------0-2-1-2-0-------000--1-3-|-0-------0-2-1-2-0000-3-3-1-----| 
C5 Caminho escuro história perdida Ab5 F5 No fundo do poço procurando a saída C5 Valores perdidos vestes de vegonha Ab5 F5 Sonhos frustrados uma vida vazia
C5 Ab5 F5 Volte pra Deus volte pra casa Bb5 Não importa onde você andou C5 O Pai está te esperando
(Repete a intro)

Compartilhe esta música: novo

QR Code
Copiar