Nova História

Banda Freedom

Tom: F#m
Riff 1: 
 
E|--9--------------9----------------------------| 
B|----9-7-5-6-------9-7-5-6---------------------| 
G|----------------------------------------------| 
D|----------------------------------------------| 
A|----------------------------------------------| 
E|----------------------------------------------| 
 

Riff 2: 
 
E|--------------------------------------------------------------------------| 
B|--------------------------------------------------------------------------| 
G|-------------------------2xx-2xx-2-2----------------------4xx-4xx-4-6-----| 
D|-------------------------------------------4xx-4xx-4-4--------------------| 
A|---2-2-4xx-4xx-4-4--------------------------------------------------------| 
E|--------------------------------------------------------------------------| 
(Riff 2) Quando tudo não vai bem Quando tudo parece estar perdido E a única esperança é Buscar o que nos leva a desabafar F#m A E Mas se você olhar pro alto B F#m E E entregar os sentimentos F#m A E B F#m B Verá que amanhã é um novo dia A F#m C#m Ebm Nunca é tarde pra reescrever a sua história A F#m B C#m Basta um passo pra nocautear suas fraquezas A F#m C#m Ebm Então vá correndo assim como estás A F#m B Esteja como estiver, Deus estará te esperando (Riff 1) (Riff 2) Quando tudo não vai bem Quando tudo parece estar perdido pra você E a única esperança é Buscar o que nos leva a desabafar F#m A E Mas se você olhar pro alto B F#m E E entregar os sentimentos F#m A E B F#m B Verá que amanhã é um novo dia A F#m C#m Ebm Nunca é tarde pra reescrever a sua história A F#m B C#m Basta um passo pra nocautear suas fraquezas A F#m C#m Ebm Então vá correndo assim como estás A F#m B Esteja como estiver, Deus estará te esperando
Pasagem: 
 
E|-------------------------------------------------------------------|      |---------------| 
B|-------------------------------------------------------------------|      |---------------| 
G|-------------------------------------------------------------------|      |---------------| 
D|-------------------------------------------------------------------|      |---------------| 
A|-0-0-0-0-0---0-0------------------4-4-4-4-4--6-6-6-----------------| (2x) |--6-7-6-4-6-0--| 
E|------------------------2-2-2-2-2----------------------------------|      |---------------| 
 
Nunca é tarde... (Riff 1)

Compartilhe esta música: novo

QR Code
Copiar