Janela Do Coração

Banda AR 15

Tom: A
Intro F#m7  D9  A  E 
        F#m7  D9  A  E 

Tab - Intro 

E|--5-4---------------------------------------| 
B|------5--5-3--------------------------------| 
G|---------------2--4-4/6---6-8-9-6-4---------| 
D|--------------------------------------------| 
A|--------------------------------------------| 
E|--------------------------------------------| 

E|--5-4---------------------------------------| 
B|------5--5-3--------------------------------| 
G|---------------2--4-4/6---6-8-9-6-4---------| 
D|--------------------------------------------| 
A|--------------------------------------------| 
E|--------------------------------------------| 

Verso 1:

A F#m7 Quando menos imaginei D9 E Você chegou, me fez sonhar A F#m7 Tanto tempo te esperei D9 E Pedindo ao Senhor, alguém para amar

Pré-Refrão

Bm Bm7M Da janela do meu coração Bm7 Bm7(13) E Fiquei a te admirar Bm Bm7M Bm7 Bm7(13) E Tocando belas canções pra você me escutar
D9 A/C# Quero te olhar, nem que seja de longe F#m7 E Te admirar quando você passar D9 A/C# Estarei lá cantando a mais bela canção G E Te admirando da janela do meu coração
( F#m D9 D#m7 B C# )

Verso 2:

F# D#m7 Quando menos imaginei B C# Você chegou, me fez sonhar F# D#m7 Tanto tempo te esperei B C# Pedindo ao Senhor, alguém para amar

Pré-Refrão

G#m G#m7M G#m7 G#m7(13) C# Cheguei perto de você, pra sua voz escutar G#m G#m7M Conquistou o meu coração G#m7 G#m7(13) C# Com o brilho do teu olhar
B F#/A# Pra que ficar tão longe assim D#m7 C# Já te entreguei meu coração B F#/A# Quero te ouvir cantando a mais bela canção E C# Te admirando da janela do meu coração
( D#m7 B F# C# ) ( D#m7 B F# C# )
B F#/A# Não vou mais ficar tão longe assim D#m7 C# Já te entreguei o meu coração B F#/A# Vamos cantar juntos a mesma canção E C# Te admirando na janela do meu coração
Final D#m7 B F# C# D#m7

Compartilhe esta música: novo

QR Code
Copiar