Poderosa

Axerife

Tom: Gm
Solo Intro: 


E|----------------------------------------------------| 
B|----------------------------------------------------| 
G|-12--12-12-12---------10-10-10--12-12-12------------| 
D|-------------12-12-12-------------------------------| 
A|----------------------------------------------------| 
E|----------------------------------------------------| 



E|----------------------------------------------------| 
B|----------------------------------------------------| 
G|-12-12-12----------10-10-12-------------------------| 
D|----------12-12-12----------------------------------| 
A|----------------------------------------------------| 
E|----------------------------------------------------| 
Gm Quando ela chega, para o baile De vestido da Ed Hardy F D7 Ela é tipo panicat, destaque na capa da sexy Gm Poderosa, maravilhosa F Onde passa incomoda D& Onde passa incomoda Gm Enjoada, da mente blindada Só bebi tequila e chandon na táça F D7 Essa mina é chapa quente, é bandida experiente Gm Entra em cena, roba a cena F D7 No camaro ela acena, no camaro ela acena (Solo) Gm Tem de galo, tem de cem, pode chama que eles vem F D7 Tá causando zum, zum, zum; tá no giro de R1 Gm F D7 Ela porta, ela forga, só gosta de andar na moda, só gosta de andar na moda Gm No pulso alt blade, ouro 18 quilates F D7 Tem Armani, black bulgo o perfume é o two one two Gm F D7 Tem batom, tem maquiagem só pra retocar no baile, só pra retocar a imagem (Solo) Gm Quando ela chega, para o baile De vestido da Ed Hardy F D7 Ela é tipo panicat, destaque na capa da sexy Gm De tamanco ela sobe, ela desce, de tamanco ela sobe, ela desce F De tamanco ela sobe, ela desce, de tamanco ela sobe, ela desce, D7 De tamanco ela sobe, ela desce, de tamanco ela sobe, ela desce, Gm Poderosa, maravilhosa F Onde passa incomoda D7 Onde passa incomoda Gm Enjoada, da mente blindada Só bebi tequila e chandon na táça F D7 Essa mina é chapa quente, é bandida experiente Gm Entra em cena, roba a cena F D7 No camaro ela acena, no camaro ela acena (Solo) Uh uuuhu ien ien ien ien, Polentinhaaa! Gm Tem de galo, tem de cem, pode chama que eles vem F D7 Tá causando zum, zum, zum; tá no giro de R1 Gm F D7 Ela porta, ela forga, só gosta de andar na moda, só gosta de andar na moda Gm No pulso alt blade, ouro 18 quilates F D7 Tem Armani, black bulgo o perfume é o two one two Gm F D7 Tem batom, tem maquiagem só pra retocar no baile, só pra retocar a imagem

Compartilhe esta música: novo

QR Code
Copiar