Lovely Lady

Avi Kaplan

Tom: G
Intro: 2x 

E|-----------------3---------------------------3----------------| 
B|-----------------0---------------------------0----------------| 
G|-----------------0---------------------------0----------------| 
D|-----------------0-------------------0/2-----2-----0/2--0-----| 
A|---------0/2-----2-----0/2--0--3-------------3----------------| 
E|---3-------------3--------------------------------------------| 
G		         C7M		  G	  C7M 
	The sun is fading, it's on the run 
	the moon is waiting 'til the day is done 
	as for me I'm pacing, waiting for the day to come 
	      Em     C	    G	      D	   D  D4  D  D7  D 
	But I can't talk to you 'til then 
	And I can't only be your friend 

 
Em C G D D4 D D7 D Lovely lady, is never maybe in my mind Em C G D D4 D D7 D I love you baby but this is crazy you should be mine, oh Em C G D D D4 D D7 D But I can't talk to you 'til then And I can't only be your friend ooh, ooh
2ª Parte: G C7M G C7M A swan glided by on a pristine lake We kissed under the bench what a risk to take We ran behind the trees in hopes to escape Em C G D D D4 D D7 D Why don't you remember the times like those My beloved one, my yellow rose
Em C G D D4 D D7 D Lovely lady, is never maybe in my mind Em C G D D4 D D7 D I love you baby but this is crazy you should .. Oh you should be mine, oh Em C G D D D4 D D7 D But I can't talk to you 'til then And I can't only be your friend ooh, ooh
Riff 1: 4x 

E|------------------------------------| 
B|---1---3---5--------8-----7---------| 
G|------------------------------------| 
D|------------------------------------| 
A|---0---2---3--------7-----5---------| 
E|------------------------------------| 
     A   B   C	      E     D 
I'm standing here waiting And my sweet hope is simply fading And I can't talk to you 'til then And I know we won't be together once again Intro 2x

Compartilhe esta música: novo

QR Code
Copiar