I Think About You

Austin e Ally

Tom: E
Intro 

   E           B4   A9          B4 
E|---4-------------------------------------| 
B|-5---5---5---5----5---5---5---5----------| 
G|-4---4---4---4----4---4---4---4----------| 
D|-----------------------------------------| 
A|-------------2-2--0-0---0---0-2-2--------| 
E|-0-----0---0-----------------------------| 

   E           B4   A9          B4 
E|---4-------------------------------------| 
B|-5---5---5---5----5---5---5---5----------| 
G|-4---4---4---4----4---4---4---4----------| 
D|-----------------------------------------| 
A|-------------2-2--0-0---0---0-2-2--------| 
E|-0-----0---0-----------------------------|



   E           B4   A9          B4 
E|---4-------------------------------------| 
B|-5---5---5---5----5---5---5---5----------| 
G|-4---4---4---4----4---4---4---4----------| 
D|-----------------------------------------| 
A|-------------2-2--0-0---0---0-2-2--------| 
E|-0-----0---0-----------------------------| 

   E           B4   A9          B4 
E|---4-------------------------------------| 
B|-5---5---5---5----5---5---5---5----------| 
G|-4---4---4---4----4---4---4---4----------| 
D|-----------------------------------------| 
A|-------------2-2--0-0---0---0-2-2--------| 
E|-0-----0---0-----------------------------| 

   C#m         B4    A9          B4 
E|-----------------------------------------| 
B|-5---5---5---5-----5---5---5---5---------| 
G|-6---6---6---4-----4---4---4---4---------| 
D|-----------------------------------------| 
A|-4-4---4---4-2-2---0-0---0---0-2-2-------| 
E|-----------------------------------------|

   C#m         B4    A9 
E|-----------------------------------------| 
B|-5---5---5---5-----5---------------------| 
G|-6---6---6---4-----4---------------------| 
D|-----------------------------------------| 
A|-4-4---4---4-2-2---0---------------------| 
E|-----------------------------------------|

Verso 1:

E B4 Last Summer we met A9 B4 We started as friends E B4 A9 B4 I can't tell you how it all happened E B4 A9 B4 Then autumn it came, we were never the same E B4 A9 Those nights everything felt like magic B4 C#m B4 A9 B4 And I wonder if you miss me too C#m B4 A9 If you don't here's the one thing that I wish you knew
E B4 A9 I think about you, every morning when I open my eyes B4 E B4 A9 I think about you, every evening when I turn out the lights B4 C#m B4 A9 I think about you every moment every day of my life C#m A9 B4 You're on my mind all the time it's true C#m B4 A9 B4 I think about you, you, you, you, you C#m B4 A9 B4 I think about you, you, you, you, you

Verso 2:

E Would you know what to say B4 A9 If I saw you today? B4 E B4 A9 Would you let it all crumble to pieces? B4 E B4 Cause I know that I should A9 Forget you if I could B4 E B4 A9 But I can't yet for so many reasons
E B4 A9 I think about you, every morning when I open my eyes B4 E B4 A9 I think about you, every evening when I turn out the lights B4 C#m B4 A9 I think about you every moment every day of my life C#m A9 B4 You're on my mind all the time it's true C#m B4 A9 B4 I think about you, you, you, you, you C#m B4 A9 B4 I think about you, you, you, you, you

Verso 3:

F#m How long 'till I stop pretending A9 What we got is never ending C#m B9 Ohh Ohhhhhhh F#m If all we are is just a moment A9 Don't forget me 'cause I won't and B9 I can't help myself E I think about you B4 Oooh C#m I think about you A9 Oooh
E B4 A9 I think about you, every morning when I open my eyes B4 E B4 A9 I think about you, every evening when I turn out the lights B4 C#m B4 A9 I think about you every moment every day of my life C#m A9 B4 You're on my mind all the time it's true C#m B4 A9 B4 I think about you, you, you, you, you C#m B4 A9 B4 I think about you, you, you, you, you
Final
   E           B4   A9          B4 
E|---4-------------------------------------| 
B|-5---5---5---5----5---5---5---5----------| 
G|-4---4---4---4----4---4---4---4----------| 
D|-----------------------------------------| 
A|-------------2-2--0-0---0---0-2-2--------| 
E|-0-----0---0-----------------------------|

Compartilhe esta música: novo

QR Code
Copiar