Be YourselfCifra Verificada

Audioslave

Tom: Am
Capotraste na 2ª casa


Intro: Am  F7+(11+)
   
e|---5--0-3/7-7/8-8-10\7-7--8\3-3/5-5--0-3/7-7/8-8---7\3-3-0-7\5-5-|
B|-----------------------------------------------------------------|
G|-----------------------------------------------------------------|
D|-----------------------------------------------------------------|
A|-----------------------------------------------------------------|
E|-----------------------------------------------------------------|
  
(Riff) Someone falls to pieces Sleeping all alone Someone kills the pain Spinning in the silence She finally drifts away Someone gets excited In a chapel yard And catches a boquet Another lays a dozen White roses on a grave D Yeah
Am C F Dm To be yourself is all that you can do, yeah Am C F Dm To be yourself is all that you can do
   
e|5--0-3/7-7/8-8---7\3-3-0-7\5-5-| 
B|-------------------------------|
G|-------------------------------|
D|-------------------------------|
A|-------------------------------|
E|-------------------------------| 

Riff Someone finds salvation In everyone Another only pain Someone tries to hide himself Down inside himself he prays Someone swears his true love Until the end of time Another runs away Separate or united F Dm Healthy or insane (Riff)
Am C F Dm And be yourself is all that you can do Am C F Dm To be yourself is all that you can do Am C F Dm To be yourself is all that you can do Am C F To be yourself is all that you can dooo
Solo:   
   

e|----------------------------------------------------------------|
B|----------------------------------------------------------------|
G|----------------------------------------------------------------|
D|----------------------------------------------------------------|
A|----0-2-3-5-7-5-3-2-0-2-3-5-3-2-0---0-2-3-5-7-8-7-8-10-8-7-5-7--|
E|----------------------------------3-----------------------------|

e|---------------------------------------------------------------|
B|---------------------------------------------------------------|
G|---------------5-------------------------5---------------------|
D|---5h7-7-7-7---xh7-7-7-7-----5h7-7-7-7---xh7-7-7-7-------------|
A|---------------------------------------------------------------|
E|---------------------------------------------------------------|

e|---------------------------------------------------------------|
B|---------------------------------------------------------------|
G|---------------5-----------------------------------------------|
D|---5h7-7-7-7---xh7-7-7-7-----5h7-7-7-7-------------------------|
A|---------------------------------------------------------------|
E|---------------------------------------------------------------|

e|-----------------------------------------------------------------|
B|-------5-8-5-----------------------------------------------------|
G|---5-7-------7-5------------------5h7-7-7-7-------------5h7-7-7-7|
D|-----------------7-----5h7-7-7-7-------------5h7-7-7-7-----------|
A|-----------------------------------------------------------------|
E|-----------------------------------------------------------------|

e|-----------------------------------------------------------------|
B|---7b8-7-7b9-7-7b9-9r7-------------------------------------------|
G|---7b9-7-7b9-7-7b9-9r7-5-7-5-------------------------------------|
D|-----------------------------7-5---------------------------------|
A|-----------------------------------------------------------------|
E|-----------------------------------------------------------------|

F7+ G6 Even when you've paid enough Am9 F7+ Been put upon, or been held up G6 With every single memory of Am9 The good or bad, faces of luck F7+ G6 Don't lose any sleep tonight Am9 F7+ I'm sure everything will end up alright G6 You may win or lose
A5 C5 F5 D5 And be yourself is all that you can do A5 C5 F5 Dm To be yourself is all that you can do Am C F Dm To be yourself is all that you can do Am C F Dm And be yourself is all that you can do Am C F Dm To be yourself is all that you can do Am C F Dm F To be yourself is all that you can do

Compartilhe esta música: novo

QR Code
Copiar