Love Makes The World Go Round

Ashlee Simpson

Tom: E
{{standard tuning}} 
 
   E   B   C#  A   F# 
e|-0---0---0---0---0---------------------------------------------------------| 
B|-0---0---0---0---0---------------------------------------------------------| 
G|-9---4---6---2---11--------------------------------------------------------| 
D|-9---4---6---2---11--------------------------------------------------------| 
A|-7---2---4---0---9---------------------------------------------------------| 
E|-x---x---x---x---x---------------------------------------------------------| 
 
 
  E                           B 
e|-----0--|                  e|-----0--| 
B|-------0|                  B|-------0|  
G|--------|                  G|--------| 
D|---9----|  x8              D|---4----| x4 
A|-7------|                  A|-2------| 
E|--------|                  E|--------| 
          Here, Here I am a- gain 
 
         C#             B 
        e|-----0--|    e|-----0--| 
        B|-------0|    B|-------0| 
        G|--------|    G|--------| 
        D|---6----| x2 D|---4----| x2 
        A|-4------|    A|-2------| 
        E|--------|    E|--------| 
and I'm staring at the same four walls 
   
  A 
 e|-----0--|     e|-----0--| 
 B|-------0|     B|-------0| 
 G|--------|     G|--------| 
 D|---2----| x2  D|---4----| 
 A|-0------|     A|-2------| 
 E|--------|     E|--------| 
alone again
E B And now, all the colors blend C# B And I'm growing numb and I've become A B This empty page C# B Hold on, its tragic A B Stumbling through all this static E B I just wanna talk to you E B And my broken heart just has no use C# B A B And I, I guess promises are better left unsaid, yeah E B Every time you try to tell me E B Say the words that I'm the only C# B A But I'm the one who's crawling on the ground B E When you say love makes the world go round E B My love, look at what you've done to me C# B For someone who has felt so strong A B It's amazing I'm completely gone C# B Hold on, its tragic A B Stumbling through all this static E B I just wanna talk to you E B my broken heart just has no use C# B A B And I, I guess promises are better left unsaid, yeah E B Everytime you try to tell me E B say the words that I'm the only C# B A But I'm the one who's crawlin on the ground B E When you say love makes the world go round E B I guess the kind of love you give me E B I'd rather be alone, believe me C# B Is that the way you're 'posed to treat me C# E F# I'd rather walk away E B I just wanna talk to you E B my broken heart just has no use C# B A B And I, I guess promises are better left unsaid, yeah E B Everytime you try to tell me E B say the words that I'm the only C# B A But I'm the one who's crawlin on the ground B E When you say love makes the world go round B E You say love makes the world go round E B Every time you try to tell me E B I dont care you're not the only C# B A Dont you know I'm coming back around B E Cuz I say love makes the world go round, yeah B Cuz I say love makes the world go round

Compartilhe esta música: novo

QR Code
Copiar