Vida Santa (1 Tessalonicenses)

Arvore da vida

Tom: D
Capotraste na 2ª casa
 

     C                   Em7                
E|-------------3-------------------2--------------------| 
B|----------1--------------------2---0------------------| 
G|----------------------0-------------------------------| 
D|------2----------0p2-------0--------------------------| 
A|---3--------------------2-----------------------------| 
E|------------------------------------------------------|
       Dm7                 G 
E|--------------1---------------------------------------| 
B|-----------1-------3--1-----2-------------------------| 
G|-------2---------2------2h4--4h2---0-------0----------| 
D|---0----------------------------------0p2-------------| 
A|------------------------------------------------------| 
E|------------------------------------------------------|
C G Am 1. Vida santa, que a vinda do Senhor aguarda Em F E4 E Deus quer para mim, para mim C G Am Dia a dia do Espír'to sendo saturada Am/G F Em Minh'alma, meu ser, e aprazer Am Dm G A Cristo assim Am Am/G D9/F# Dm/G Vida de orar sem cessar Am Am/G D9/F# Dm/G E de se regozijar Am Am/G D9/F# Dm/G Na comunhão a invocar Am Am/G D9/F# Dm/G Jesus! ( Am Am/G D9/F# ) ( Bm C D9 C ) C G Am 2. Sempre vigilante e prudente aqui espero Em F E4 E Jesus, meu Senhor, meu Senhor C G Am Vivo a vida da igreja tendo um só anelo Am/G F Em A Cristo ganhar, e buscar Am Dm G Crescer em amor Am Am/G D9/F# Dm/G O Espír'to não apagar Am Am/G D9/F# Dm/G Não desprezar Seu falar Am Am/G D9/F# Dm/G Na comunhão a invocar Am Am/G D9/F# Dm/G Jesus! Final C Em7 Dm7 G C Em7 Dm7 G

Compartilhe esta música: novo

QR Code
Copiar