She's Revenge

Artetra

Intro 1st part (Palm Mute) 

e|-----------------------------------------------------------------------------------| 
B|-----------------------------------------------------------------------------------|  
G|-----------------------------------------------------------------------------------|   
D|-----------------------------------------------------------------------------------|    
A|------10--10--9--7---------10--10--9--7---------7--7--9--10--------7--7--9--10-----|    
E|---7-----------------3--3-----------------5--5---------------5--5------------------| 

e|-----------------------------------------------------------------------------------| 
B|-----------------------------------------------------------------------------------|  
G|-----------------------------------------------------------------------------------|   
D|-----------------------------------------------------------------------------------|    
A|---------10--10--9--7---------10--10--9--7---------7--7--9--10----7--7--7--9--0----|    
E|---7--7-----------------3--3-----------------5--5----------------------------------| 

Intro 2nd part 

e|-----------------------------------------------------------------------------------| 
B|-----------------------------------------------------------------------------------|  
G|---------12--12--7----------12--12--7----------9--9--11---------9--9--11-----pause-| 
D|---9--9---x---x--x----5--5---x---x--x----7--7--x--x--x----7--7--x--x--x----9-------|    
A|---9--9--10--10--9----5--5--10--10--9----7--7--7--7--9----7--7--7--7--9----9-------|    
E|---7--7---------------3--3---------------5--5-------------5--5-------------7-------| 

e|-----------------------------------------------------------------------------------| 
B|-----------------------------------------------------------------------------------|  
G|---12--12--7---------12--12--7----------9--9--11----7--9--11-----------------------| 
D|----x---x--x---5--5---x---x--x----7--7--x--x--x-----x--x--x----7-7-----------------|    
A|---10--10--9---5--5--10--10--9----7--7--7--7--9-----5--7--9----7-7-----------------|    
E|---------------3--3---------------5--5-------------------------5-5-----------------| 

Verse 

e|-----------------------------------------------------------------------------------| 
B|-----------------------------------------------------------------------------------|  
G|-----------------------------------------------------------------------------------| 
D|----9-----------------------------------5----------------7--7--7--7----------------|    
A|----9-----------------------------------5----------------7--7--7--7----------------|    
E|----7--7-7-7-7-7-7-7-7-7-7-7-7-7-7-7----3--3-3-3-3-3-3---5--5--5--5----------------| 
P.M.     . . . . . . . . . . . . . . .       . . . . . . 

e|-----------------------------------------------------------------------------------| 
B|-----------------------------------------------------------------------------------|  
G|---------------------------------------------------------7------(7)----------------| 
D|----9-----------------------------------5----------------7----------(7)------------|    
A|----9-----------------------------------5----------------5-------------------------|    
E|----7--7-7-7-7-7-7-7-7-7-7-7-7-7-7-7----3--3-3-3-3-3-3-----------------------------| 
P.M.     . . . . . . . . . . . . . . .       . . . . . . 

e|-----------------------------------------------------------------------------------| 
B|-----------------------------------------------------------------------------------|  
G|-----------------------------------------------------------------------------------| 
D|----9------9-----9-----9-----9---------5------5-----5--------7-----7---------------|    
A|----9----------------------------------5-------------------------------------------|    
E|----7--7-7---7-7---7-7---7-7---7-------3--3-3---3-3------5-5---5-5---5-------------| 
P.M.     . . . . . . . . . . . . .          . . . . . .    . . . . . . . 

e|-----------------------------------------------------------------------------------| 
B|-----------------------------------------------------------------------------------|  
G|----------12--12--12--12--12--12-------------7-7-7-7--------------------------7----| 
D|----9--9---x---x---x---x---x---x----5-5-5-5--7-7-7-7--7-7-7-7-7-7-7-7--5-5-5--7----|    
A|----9--9--10--10--10--10--10--10----5-5-5-5--5-5-5-5--7-7-7-7-7-7-7-7--5-5-3--5----|    
E|----7--7----------------------------3-3-3-3-----------5-5-5-5-5-5-5-5--3-3-3-------| 

Bass Solo 

e|-----------------------------------------------------------------------------------| 
B|----------------------------------------------------------(7)----------------------|  
G|-------------------------------------------------------(7)-------------------------| 
D|----9--9--9--9--9--9--9--9----5--5--5--5----7--7----(7)----------------------------|    
A|----9--9--9--9--9--9--9--9----5--5--5--5----7--7-----------------------------------|    
E|----7--7--7--7--7--7--7--7----3--3--3--3----5--5-----------------------------------| 


e|-----------------------------------------------------------------------------------| 
B|-----------------------------------------------------------------------------------|  
G|-----------------------7-7-7-7-----------------------------------------------------| 
D|----9-9-9-9-9-9-9-9----7-7-7-7----5-5-5-5----7-7-7-7-7-7-7-7-----------------------|    
A|----9-9-9-9-9-9-9-9----5-5-5-5----5-5-5-5----7-7-7-7-7-7-7-7-----------------------|    
E|----7-7-7-7-7-7-7-7---------------3-3-3-3----5-5-5-5-5-5-5-5-----------------------| 

Chorus 

e|-----------------------------------------------------------------------------------| 
B|-----------------------------------------------------------------------------------|  
G|------------------------------7-7-7-7-----------------(7)--------------------------| 
D|----9-9-9-9----5-5-5-5--------7-7-7-7----7-7-7-7-----------------------------------|    
A|----9-9-9-9----5-5-5-5--------5-5-5-5----7-7-7-7-----------------------------------|    
E|----7-7-7-7----3-3-3-3-------------------5-5-5-5---5-5-----------------------------| 
P.M.                                                 . . 

e|-----------------------------------------------------------------------------------| 
B|-----------------------------------------------------------------------------------|  
G|---------------7-7-7-7-------------------------------------------------------------| 
D|----9-9-9-9----7-7-7-7----------------5------------7-----9-------------------------|    
A|----9-9-9-9----5-5-5-5----------------5------------7-----9-------------------------|    
E|----7-7-7-7-------------------3-3-3-3-3----5-5-5-5-5-----7-------------------------| 
P.M.                            . . . .      . . . . 

2nd Verse 

e|-----------------------------------------------------------------------------------| 
B|-----------------------------------------------------------------------------------|  
G|-----------------------------------------------------------------------------------| 
D|--bass----7--7-----9-----9---9----9-----5----5------7----7-------------------------|    
A|--solo----7--7---------------------------------------------------------------------|    
E|----------5--5---7---7-7--7-7--7-7----3--3-3----5-5---5-5--------------------------| 
P.M.               .   . .  . .  . .    .  . .    . .   . . 


e|-----------------------------------------------------------------------------------| 
B|-----------------------------------------------------------------------------------|  
G|-----------------------------------------------------------------------------------| 1st guitar 
D|----9--9--9--9--9--9--9--9----5--5--5--5----7--7--7--7-----------------------------|    
A|----9--9--9--9--9--9--9--9----5--5--5--5----7--7--7--7-----------------------------|     
E|----7--7--7--7--7--7--7--7----3--3--3--3----5--5--5--5-----------------------------|      
                                                                                                  
e|-----------------------------------------------------------------------------------| 
B|----------8--7--10--8--7---------8--7--10--8--7---8--7--5---3--5--7--8--7----------|  
G|-----7--7------------------7--7----------------------------------------------------| 2nd guitar 
D|-----------------------------------------------------------------------------------|    
A|-----------------------------------------------------------------------------------|    
E|-----------------------------------------------------------------------------------| 



e|-----------------------------------------------------------------------------------| 
B|-----------------------------------------------------------------------------------|  
G|-----------------------7-7-7-7-----------------------------------------------------| 1st guitar 
D|----9-9-9-9-9-9-9-9----7-7-7-7----5-5-5-5----7-7-7-7-7-7-7-7-----------------------|    
A|----9-9-9-9-9-9-9-9----5-5-5-5----5-5-5-5----7-7-7-7-7-7-7-7-----------------------|    
E|----7-7-7-7-7-7-7-7---------------3-3-3-3----5-5-5-5-5-5-5-5-----------------------| 

e|-----------------------------------------------------------------------------------| 
B|-----------8--7--10--8--7--------8--7---10--8--7---8--7--5---3--5--7--5--3---5b7---|  
G|-----7--7------------------7--7----------------------------------------------------| 2nd guitar 
D|-----------------------------------------------------------------------------------|    
A|-----------------------------------------------------------------------------------|    
E|-----------------------------------------------------------------------------------| 


Chorus X2 

e|-----------------------------------------------------------------------------------| 
B|-----------------------------------------------------------------------------------|  
G|------------------------------7-7-7-7-----------------(7)--------------------------| 
D|----9-9-9-9----5-5-5-5--------7-7-7-7----7-7-7-7-----------------------------------|    
A|----9-9-9-9----5-5-5-5--------5-5-5-5----7-7-7-7-----------------------------------|    
E|----7-7-7-7----3-3-3-3-------------------5-5-5-5---5-5-----------------------------| 
P.M.                                                 . . 

e|-----------------------------------------------------------------------------------| 
B|-----------------------------------------------------------------------------------|  
G|---------------7-7-7-7-------------------------------------------------------------| 
D|----9-9-9-9----7-7-7-7----------------5------------7-------------------------------|    
A|----9-9-9-9----5-5-5-5----------------5------------7-------------------------------|    
E|----7-7-7-7-------------------3-3-3-3-3----5-5-5-5-5-------------------------------| 
P.M.                            . . . .      . . . . 

Bridge  

e|-----------------------------------------------------------------------------------| 
B|-----------------------------------------------------------------------------------|  
G|-----------------------------------------------------------------------------------| All P.M. x2 
D|-----------------------------------------------------------------------------------|     
A|------10--10--9--7---------10--10--9--7---------7--7--9--10--------7--7--9--10-----|    
E|---7-----------------3--3-----------------5--5---------------5--5------------------| 


e|-----------------------------------------------------------------------------------| 
B|--------------------------------------------------------------10--8--7-------------|  
G|------------------------------------------------------------------------9--7-------|   
D|------------------------------------------------------------------------------9--7-|    
A|------10--10--9--7---------10--10--9--7---------7--7--9--7-------------------------|    
E|---7-----------------3--3-----------------5--5-------------------------------------| 

e|-----------------------------------------------------------------------------------| 
B|-----------------------------------------------------------------------------------|  
G|---------12--12--7----------12--12--7----------9--9--11---------9--9--11-----pause-| 
D|------5---x---x--x----5--5---x---x--x----7--7--x--x--x----7--7--x--x--x----9-------|    
A|------5--10--10--9----5--5--10--10--9----7--7--7--7--9----7--7--7--7--9----9-------|    
E|------7---------------3--3---------------5--5-------------5--5-------------7-------| 

e|-----------------------------------------------------------------------------------| 
B|-----------------------------------------------------------------------------------|  
G|---12--12--7---------12--12--7----------9--9--11---------9--9--11------------------| 
D|----x---x--x---5--5---x---x--x----7--7--x--x--x----7--7--x--x--x-------------------|    
A|---10--10--9---5--5--10--10--9----7--7--7--7--9----7--7--7--7--9-------------------|    
E|---------------3--3---------------5--5-------------5--5----------------------------| 


e|-----------------------------------------------------------------------------------| 
B|----------------------------------------------------------------------(5)----------|  
G|---x-x-x-x-x-x-x-x-x-x-x-x-x-x-x-x-x-x-x-x-x-x----------(7)--------(5)-------------| 
D|---x-x-x-x-x-x-x-x-x-x-x-x-x-x-x-x-x-x-x-x-x-x-------(7)---(7)--(5)----------------|    
A|---x-x-x-x-x-x-x-x-x-x-x-x-x-x-x-x-x-x-x-x-x-x----(7)------------------------------|    
E|-----------------------------------------------------------------------------------| 

Chorus X2 

e|-----------------------------------------------------------------------------------| 
B|-----------------------------------------------------------------------------------|  
G|------------------------------7-7-7-7-----------------(7)--------------------------| 
D|----9-9-9-9----5-5-5-5--------7-7-7-7----7-7-7-7-----------------------------------|    
A|----9-9-9-9----5-5-5-5--------5-5-5-5----7-7-7-7-----------------------------------|     
E|----7-7-7-7----3-3-3-3-------------------5-5-5-5---5-5-----------------------------| 
P.M.                                                 . .        

e|-----------------------------------------------------------------------------------| 
B|-----------------------------------------------------------------------------------|  
G|---------------7-7-7-7-------------------------------------------------------------| 
D|----9-9-9-9----7-7-7-7----------------5------------7-------------------------------|    
A|----9-9-9-9----5-5-5-5----------------5------------7-------------------------------|    
E|----7-7-7-7-------------------3-3-3-3-3----5-5-5-5-5-------------------------------| 
P.M.                            . . . .      . . . . 

Ending 

e|-----------------------------------------------------------------------------------| 
B|-----------------------------------------------------------------------------------|  
G|--------7--------------------------------------------------------------------------| 
D|--------7---9----------------------------------------------------------------------|    
A|--------5---9----------------------------------------------------------------------|    
E|------------7----------------------------------------------------------------------| 
 

Compartilhe esta música: novo

QR Code
Copiar