Folha De Bananneira

Armandinho

Tom: F
Refrão 

 F                            Gm 
Fuma, fuma, fuma folha de bananeira  
         C                F            2x 
Fuma na boa, só de brincadeira 

Solo 1: 


-8/10--8--6--8--6/8--6-|-10--9/10--8--6-------- 
-----------------------|----------------7--5--- 
-----------------------|----------------------- 
-----------------------|----------------------- 
-----------------------|----------------------- 

-8/10--8--6--8--6/8--6-|-10--9/10--8--6---6---- 
-----------------------|----------------7------ 
-----------------------|----------------------- 
-----------------------|----------------------- 
-----------------------|-----------------------
F Gm Fuma, fuma, fuma folha de bananeira C F 2x Fuma na boa, só de brincadeira Bb F Seu guarda cê não pode me prendê C F é só um fino que eu acabo de cumê Bb F se chegou tarde o que posso fazer C F sou de menor e cê não pode me batê F Gm Fuma, fuma, fuma folha de bananeira C F 2x Fuma na boa, só de brincadeira Bb F Seu guarda não cheire a minha mão C F so seu amigo agora preste atenção Bb F a folha é boa, é erva fina C F fumo na boa só pra pega as menina F Gm Fuma, fuma, fuma folha de bananeira C F 2x Fuma na boa, só de brincadeira Bb F C F ohhh cabróbró, ohhh cabróbró Bb F C F ohhh cabróbró, ohhh cabróbró Bb F seu guarda, não sou ladrão C F passei de ano sem recuperação Bb F enquanto isso eu vou descendo a minha lomba C F andando de skate, estourando a minha bomba F Gm Fuma, fuma, fuma folha de bananeira C F 2x Fuma na boa, só de brincadeira
Solo 2: 



E|----------------------|----------------------------| 
B|-8/10--8--6-8-8bend-6-|-8/10-8-6-------------------| 
G|----------------------|----------7-5---------------| 
D|----------------------|----------------------------| 
A|----------------------|----------------------------| 
E|----------------------|----------------------------| 


E|----------------------|----------------------------| 
B|-8/10--8--6-8-8bend-6-|-8/10-8-6-8-6---------------| 
G|----------------------|----------------------------| 
D|----------------------|----------------------------| 
A|----------------------|----------------------------| 
E|----------------------|----------------------------| 
Bb F Seu guarda não cheire a minha mão C F so seu amigo agora preste atenção Bb F a folha é boa, é erva fina C F fumo na boa só pra pega as menina Se a música é em F o solo tb tem que ser... Refrão + solo 2 2x Refrão Solo 1

Compartilhe esta música: novo

QR Code
Copiar