Rubin Karmin

Arhangel

Tom: E
riff 1 
e|-------------------------------------------| 
B|-------------------------------------------| 
G|--9------------9---------9-----7-----6--7--| 
D|-----7--9---------7--9------9-----9--------| 
A|-----------7-------------------------------| 
E|-------------------------------------------| 

e|-------------------------------------------| 
B|-------------------------------------------| 
G|--9------------9---------9-----7-----9~~---| 
D|-----7--9---------7--9------9-----9--------| 
A|-----------7-------------------------------| 
E|-------------------------------------------| 

e|-------------------------------------------| 
B|-------------------------------------------| 
G|--9------------9---------9-----7-----6--7--| 
D|-----7--9---------7--9------9-----9--------| 
A|-----------7-------------------------------| 
E|-------------------------------------------| 

e|----------------------------------------------------| 
B|----------------------------------------------------| 
G|--9------------9---------9-----7-----7--6-----------| 
D|-----7--9---------7--9------9-----9--------7--9-----| 
A|-----------7-------------------------------------7--| 
E|----------------------------------------------------| 


riff 2 
e|-------------------------------------------------| 
B|--------------------------------------5-----5~~--| 
G|-7-----7-----5-----5------5-----5--------5-------| 
D|----7-----7-----5-----5-7----5-----5-------------| 
A|-------------------------------------------------| 
E|-------------------------------------------------| 

fill 1 
e|--12*--| 
B|--12*--| 
G|--12*--| 
D|--12*--| 
A|-------| 
E|-------| 

fill 2 
e|-----------------| 
B|-----------------| 
G|-----9-----------| 
D|--------7--9-----| 
A|--------------7--| 
E|--0--------------| 

fill 3 
E|-20b21-| 
B|-------| 
G|-------| 
D|-------| 
A|-------| 
E|-------| 
Intro: riff 1 E G A Е fill 1 Skopje, maj,zrela prolet E fill 2 eden devet devet cetiri E fill 1 Rubin Karmin karsi Putnik E G A fill 3 lica i ulici nasmeani riff 1 E fill 1 Prva sredba dlanka v dlanka E fill 2 jas i ti ko deca palavi E fill 1 Bela Bartok koncert za pijano E G A sred zvuci volsebni nie krilesti ref: riff 2 D Am G Dadov Budim za nova Pesta D Am G neznam smeev li da ti nudam D Am G vetvo srce za nova mladost D Am zaludni godini riff 1 E G A E fill 1 Ludosti i zeski solzi E fill 2 sokrivas zad lazni somnezi E fill 1 preku razum ne me gledaj E G A v srce proveri so srce pogledni ref: riff 2 D Am G Nevidlivo ke te vodi D Am G v postela od topli pregratki D Am G mojot lik e samo privid D Am zad nego se gledas sebesi D Am G Radosti i zeski solzi D Am G sokrivas zad lazni somnezi D Am G preku razum ne me gledaj D Am v srce proveri so srce pogledni
posle refrenot vtorata gitara sfiri: 
e|--15--14-------------| 
B|----------15~~~~-12--| 
G|---------------------| 
D|---------------------| 
A|---------------------| 
E|---------------------| 

Compartilhe esta música: novo

QR Code
Copiar