Lua De Mel

Anderson Correia

Tom: Dm
Intro 

   Gm 
E|------3-3h5-------5/6------3-----------------| 
B|---3----------3----------3------3------------| 
G|3---------------3----------3------3----------| 
D|---------------------------------------------| 
A|---------------------------------------------| 
E|---------------------------------------------|
   Dm 
E|-1-----1-----0-----1-------------------------| 
B|---3-----3-----3-----3-----------------------| 
G|-----2-----2-----2-----2---------------------| 
D|---------------------------------------------| 
A|---------------------------------------------| 
E|---------------------------------------------|
   Gm                        Dm 
E|-3-----5-----6------8-6-5--1-------1---------| 
B|---3-----3-----3----3-3-3--3-----3---3-------| 
G|-----3-----3-----3-------------2-------2-----| 
D|---------------------------------------------| 
A|---------------------------------------------| 
E|---------------------------------------------|
E|-0-----0------0-----0------------------------| 
B|-3---3---3----2---2---2-----2----------------| 
G|---2-------2----2-------2---0----------------| 
D|---------------------------------------------| 
A|---------------------------------------------| 
E|---------------------------------------------|
   Dm 
E|-1-----1-----1-----1-------------------------| 
B|-3-------3---3---3---3-----------------------| 
G|-2---2-----2-2-2-------2---------------------| 
D|-0-----------0-------------------------------| 
A|---------------------------------------------| 
E|---------------------------------------------|
   F 
E|-1-----1-----1-----1-------------------------| 
B|-1-------1---1---1---1-----------------------| 
G|-2---2-----2-2-2-------2---------------------| 
D|-3-----------3-------------------------------| 
A|-3-----------3-------------------------------| 
E|-1-----------1-------------------------------|
   Gm 
E|-3-----3-----3-----3-------------------------| 
B|-3-------3---3---3---3-----------------------| 
G|-3---3-----3-3-3-------3---------------------| 
D|-5-----------5-------------------------------| 
A|-5-----------5-------------------------------| 
E|-3-----------3-------------------------------|
   A                 A  F  E  Dm 
E|-5-----5-----5-----5--1--0-1-----------------| 
B|-5-------5---5---5-5--1--0-3-----------------| 
G|-6---6-----6-6-6---6--2--1-2-----------------| 
D|-7-----------7-----7--3--2-0-----------------| 
A|-7-----------7-----7--3--2-------------------| 
E|-5-----------5-----5--1--0-------------------|
Dm Na noite passada F Sonhei com você Gm A F E Num hotel num café da manhã numa praia Dm Na sua mão tinha F Um anel no lado esquerdo Gm Na minha também tinha uma A F E Tristeza não tinha nenhuma ( Dm F Gm ) ( A F E ) Dm Você se levantou F Caminhou até mim Gm Com um beijo me acariciou A E me chamou de amor Dm F Gm A F E E foi o fim ( Dm F Gm A ) Gm A Dm E por isso hoje estou aqui Gm A Dm De pé te encarando de aliança e véu Gm A Dm Pois minhas noites sempre tinham fim Gm A E acabavam sempre na lua de mel

Compartilhe esta música: novo

QR Code
Copiar