Bons Tempos

Anderson Correia

Tom: G
Intro:

E|---------------------------------------------| 
B|---------------------------------------------| 
G|---------------------------------------------| 
D|----0---0-0-0-----0-2---2-2-2--2p0-----------| 
A|-0h2-----2-2---0h2-------3-3------3-2--------| 
E|---------------------------------------------| 



E|------------------------------3--------------| 
B|------------------------------3--------------| 
G|------------------------------0--------------| 
D|-0-0-0-----0-2-2p0-2p0--------0--------------| 
A|--2-2---0h2-------------3-----2--------------| 
E|------------------------------3--------------| 
(G C G C) G C Os nossos bons tempos passaram a jato G C A gente escuta olha e já nem vê G C Criançada brincava no meio do mato G C A bicharada é que tinha o que temer G C Pick-esconde, Bandeira, Pular Corda e Elástico G C Exercício ninguém precisava fazer G C Mas a gente não era uma bando de largado G C Pra saber disso bastava desobedecer A7 Pai e mãe botava ordem no pedaço Bastava a hora de entrar esquecer D A7 Moleque safado já é mais de 10 horas D G7 O que que se faz na rua a uma hora dessas D A7 Já tinha mandado tu entrar faz horas G7 Passa pra dentro que o coro vai comer C Pá, Pá, Pá, Pá, Pá, Pá, Pááááááá, Pá G7 Havaiana pra não esquecer C Pá, Pá, Pá, Pá, Pá, Pá, Pááááááá, Pá G7 Cinturão pra lembrar só de ver C Pá, Pá, Pá, Pá, Pá, Pá, Pááááááá, Pá G7 Arreia as calças que é pra doer C Pá, Pá, Pá, Pá, Pá, Pá, Pááááááá, Pá G Fica esperto se eu olhar pra você
 Passagem de G para C         Passagem de C para G 
E|---------------|           E|---------------| 
B|---------------|           B|---------------| 
G|---------------|           G|---------------| 
D|-----0---------|           D|--2p0----------| 
A|--0h2----------|           A|-----3---------| 
E|---------------|           E|---------------|

Compartilhe esta música: novo

QR Code
Copiar