Siento

Ameba

Tom: Dm
INTRO: 


   Dm          Bb 
e—12/13-12-10-8----------------/ 
b—12/13-12-10-8-8/11-10-8------/ 
G-------------------------10- -/ 
D------------------------------/ 
A------------------------------/ 
E------------------------------/ 
       F            C 
e------------------------------------------/ 
B------------------------------------------/ 
G--9-9/10--7-7/9--5-5/7--3-3/5-3-----------/ 
D-------------------------------5-7-5-3----/ 
A---------------------------------------5--/ 
E------------------------------------------/ 
       Dm                     Bb 
e—12/13-12-10-8----------------/ 
b—12/13-12-10-8-8/11-10-8------/ 
G-------------------------10---/ 
D------------------------------/ 
A------------------------------/ 
E------------------------------/ 
       F                  C 
e------------------------------------------/ 
B------------------------------------------/ 
G--9-9/10--7-7/9--5-5/7--3-3/5-3-----------/ 
D-------------------------------5-7-5-3----/ 
A---------------------------------------5--/ 
E------------------------------------------/ 

Dm            Bb    F          C 
Siento que a veces nada nos importa 
Dm            Bb            F      C 
Siento que a veces la ingenuidad ayuda 
        Dm          Bb  F            C 
Por el amor que me das Yo te doy la vida 
       Dm           Bb     F              C 
Por el calor que ocasionas Yo te doy mi libertad 

Dm              Bb  F           C 
Siento que a veces no nos comprendemos 
Dm              Bb   F            C 
Siento que a veces nada es lo correcto 
        Dm        Bb  F            C 
Por la luz que me das Yo te doy la vida 
          Dm         Bb          F        C 
Por la pasión que reflejas Yo te doy mi libertad 
             Dm        Bb     F       C 
Y es que la luz de tu ser calma mi agonía 
            Dm        Bb        F              C 
Y es que la luz de tu ser me devuelve a mi la vida 
            Dm        Bb      F                C 
Y es que la luz de tu ser me hace perder el miedo 
            Dm         Bb   F   C 
Y es que la luz de tu serrr……. 

  Dm                Bb 
e----13----12----10----13----12----10---/ 
B-10----10----10----10----10----10------/ 
G---------------------------------------/ 
D---------------------------------------/ 
A---------------------------------------/ 
E---------------------------------------/ 
    F                  C 
e------------------------------------/ 
B-13-11-10---------------------------/ 
G----------12-10-9-9/10--------------/ 
D-----------------------10-10/12-10--/ 
A------------------------------------/ 
E------------------------------------/ 
   Dm                                 Bb 
e----13----12----10----12----13-13/15-13-12----/ 
B-10----10----10----10----10----------------13-/ 
G----------------------------------------------/ 
D----------------------------------------------/ 
A----------------------------------------------/ 
E----------------------------------------------/ 
    F               C 
e------------------------------/ 
B-13-11-10---------------------/ 
G----------12-10-9-9/12-10-9-10--/ 
D------------------------------/ 
A------------------------------/ 
E------------------------------/ 

Dm       Bb         F           C 
Espero caer en tus brazos otra vez 
Dm        Bb         F          C 
Y espero sentir tus labios otra vez 
       Dm       Bb  F             C 
Por la luz q me das yo te doy la vida 
          Dm       Bb              F          C 
Por la ilusión que reflejas yo te doy mi libertad 

Dm           Bb  F             C 
El tiempo se va todo tiene un fin 
Dm           Bb        F           C 
Pero quiero crear un instante sin final 
             Dm       Bb     F        C 
Y es que la luz de tu ser calma mi agonía 
             Dm       Bb        F               C 
Y es que la luz de tu ser me devuelve  a mi la vida 
             Dm       Bb       F              C 
Y es que la luz de tu ser me hace perder el miedo 
             Dm       Bb   F   C 
Y es que la luz de tu serrr……… 


e-------------------------/ 
B-------------------------/ 
G-------------------------/ 
D-10-8-7----8-7-----------/ 
A--------10-----10-8------/ 
E--------------------10---/ 


e----13----12----12----10-- 
B-10----10----10----10----- 
G-------------------------- 
D-------------------------- 
A-------------------------- 
E-------------------------- 

e-----------------------------------/ 
A13-12-10---------------------------/ 
G---------12-10-9-9/10--------------/ 
D----------------------10-10/11-10--/ 
A-----------------------------------/ 
E-----------------------------------/ 
Termina con arpegio en: 
Dm Bb F C (2x) 

Compartilhe esta música: novo

QR Code
Copiar