Así Nací

Alta Consigna

Tom: F
 
Escala 
1---------------------------------- 
2---------------------------------- 
3--2------------------------------- 
4-----5--3--2---------------------- 
5--------------5--3---------------- 
6----------------------------------
F Me gusta vivir siempre alegre C Gozando de buenos momentos Am Rodeado de muchas mujeres G Y amigos que me sean sinceros F Me siento muy afortunado G (Escala) Por los logros que hoy en día tengo F El trabajo es garantizado C Cualquier día de la semana Am Cuando se ladee este barco G Hay que saber guardar la calma F Por que cuando pegan el brinco G Sierreño, norteño y la banda... F C Soy un gallo de pelea pa' las morras.. F G Así nací, muy enamorado F Disfruto de los momentos G Y cuando quieren algo en serio.. (Escala) Me les pelo por un rato. *¡Y así nací chiquitita, pura Alta Consigna viejo!* F El negocio da buenos frutos C Por eso vamos avanzando Am La frontera sigue creciendo G Los clientes son seleccionados F El producto sigue exportando G Franklins en pacas llegando F Me gusta andar muy bien vestido C Por donde quiera que me paro Am En mi muñeca luce el Hublot G Carros alemanes yo cargo F La adrenalina me fascina G Y las carreras de caballos F C Soy un gallo de pelea pa' las morras.. F G Así nací, muy enamorado F Disfruto de los momentos G Y cuando quieren algo en serio.. (Escala) Me les pelo por un rato. Cada vez que termina el versa de la canción con ¨Sol¨ termina con una escala ó cada quien su gusto Escala
1---------------------------------- 
2---------------------------------- 
3--2------------------------------- 
4-----5--3--2---------------------- 
5--------------5--3---------------- 
6----------------------------------

Compartilhe esta música: novo

QR Code
Copiar