Midnight blues

Allman Brothers Band

Tom: G
 
Intro  
 
E|------------------------------------------------------- 
A|------------------------------------------------------- 
D|------------------------------------------------------- 
G|---------------------------------------------------7--- 
B|--10\12-----12---------10\12-----12-----12--8------8--- 
E|--------10-----10------------10-----10-------------7--- 
 
 
 
E|------------------------------------------------------- 
A|------------------------------------------------------- 
D|------------------------------------------------------- 
G|------------------------------------------------------- 
B|--3\5---5-------3\5----5------5--3--------------------- 
E|------3----3---------3----3---------------------------- 
 
 
 
E|-------------------------------------------------------- 
A|-------------------------------------------------------- 
D|-------------------------------------------------------- 
G|-------------------------------------------------------- 
B|--5\7----7----7------3\5----5--------------------------- 
E|------5----5-------------3----3---5--3------------------
Try: G: 355433 C: 335553 D: 557775 G Wake up mama, don?t you sleep so hard C G Wake up mama, don?t you sleep so hard D C G Wish that tornado would blow my blues away Got the blues like midnight, honey won't be long 'fore day Got the blues like midnight, honey won't be long 'fore day Lord I wish that tornado would blow my blues away Lord, I can tell my bulldog when I hear him bark I can tell my bulldog when I hear him bark Lord, I can tell my baby, when I hear her in the dark. _______________________________________________________ Contribuição: Gustavo Henrique Gomes de Oliveira([email protected])

Compartilhe esta música: novo

QR Code
Copiar