Você É Linda

Allef Mendes

Tom: C
E|-------------------------------- 
B|-------------------------------- 
G|-------------------------------- 
D|-------------------------------- 
A|-----0-2-3---------------------- 
G|-3------------------------------- 
C Deixe o seu cabelo solto Dm Viva a vida inteira sem se preocupar lá lá lá lá lá lá lá RIFF 2:
 
E|-------------------------------- 
B|-------------------------------- 
G|-------------------------------- 
D|-------------------------------- 
A|--2-3--2-0---------------------- 
G|-------------3------------------ 
G Afinal de contas ninguém é perfeito C Deus te fez linda assim desse jeito, vamos dançar RIFF:
 
E|-------------------------------- 
B|-------------------------------- 
G|-------------------------------- 
D|-------------------------------- 
A|-----0-2-3---------------------- 
G|-3------------------------------ 
C Pare de dizer essa bobagem Dm Você não precisa de maquiagem pra me conquistar lá lá lá lá lá lá lá RIFF:
 
E|-------------------------------- 
B|-------------------------------- 
G|-------------------------------- 
D|-------------------------------- 
A|--2-3--2-0---------------------- 
G|-------------3------------------ 
G C C7 Eu até pensei que você usava Mary Kay pra me encantar F Fm Mas você é linda sim, do jeito que Deus criou C D Você é linda sim, perfeição do Criador Dm Fm C Você é linda sim, amo te ver sorrir C F Fm Sorria pra vida, sorria pra mim Canta Mas você é linda sim....

Compartilhe esta música: novo

QR Code
Copiar