Acredita

Alex Gonzaga

Tom: D
Intro: D  A  Bm  F#m  G  D  Em  A 

D               A         Bm             G 
Hei, não fique assim, solidão não vai trazer 
      D            A 
A solução pro seu sofrer 

 D           A          Bm               G 
Não, não há razão pra viver tão triste assim 
         D                  G        F#m 
Existe alguém que sofreu no seu lugar 
     Em           A 
Acredita, Ele é a vida 

 D             A         Bm         Em 
Não, não estou aqui pra fazer a sua cabeça 
          D                G        F#m 
Mas pra dizer que nem tudo se perdeu 
    Em               F# 
Acredita, existe um Deus 

     B           F# 
Ele vai lhe estender a mão 
        C#m                  F# 
Lhe abraçar e acalmar o seu coração 
     B        F# 
Ele vai lhe levantar do chão 
    C#m                    F# 
Estará para sempre ao seu lado 
          B               E      Em 
A|- credi - ta nesse amor maior 
        B        F#               B 
Que sofreu até morrer pra lhe salvar 

Solo B  Em  B  A  G  A

E|-----------10/12---10/12---10-9-10-12-12/14---12/14---9-10--------- 
B|-10.10b.10--------------------------------------------------7-8---- 
G|------------------------------------------------------------------- 
D|------------------------------------------------------------------- 
A|------------------------------------------------------------------- 
E|------------------------------------------------------------------- 

( D  A  Bm  G  F#m  G  F#m  Em  F# ) 

E|------------------------------------------------------------------- 
B|-10.10b.10---7.7.7.7.7.7.7h.8p.7---------7------7.8-----8.7\5/7---- 
G|----------------------------------9.7.9-----9-------7-------------- 
D|------------------------------------------------------------------- 
A|------------------------------------------------------------------- 
E|------------------------------------------------------------------- 
Final B F# G#m D#m E B C#m F# B Em

Compartilhe esta música: novo

QR Code
Copiar