Location

Alex Calder

Tom: D

Intro/Bridge (x2): 

E---------------------------------------------------------| 
B---------------------------------------------------------| 
G-----5----4-4------5----4-4------4----0-0-----4----0-0---|    (x2) 
D--0----0---------0----0-------0----0--------0----0-------| 
A---------------------------------------------------------| 
E---------------------------------------------------------| 


E---------------------------------------| 
B---------------------------------------| 
G-----0-----------------0---------------| 
D--0----0--4-4---0----0--4-4------------| 
A---------------------------------------| 
E---------------------------------------| 


Verse: 


D    F           C 
Stay in my room 

D     F            C 
inside my home 

D     F 
is where i go 


D    F          C 
Thinking again 

D    F         C 
about my friends 

D         F 
where they go 


Repeat Intro/Bridge (x1) 


Verse: 


D    F           C 
Stay in my room 

D     F            C 
inside my home 

D     F 
is where i go 


D    F          C 
Drinking again 

D    F         C 
without my friends 

D         F 
no one knows 



Solo  (x4) 

E-------------------------------------------------------------------------------| 
B-------------------------------------------------------------------------------| 
G-------------------------------------------------------------------------------| 
D-----7-------7--------7-------7--------6--------6--------6--------6------------| 
A-7-7---7-7-7---7-7-7---7-7-7----7-7-7----7-7-7----7-7-7----7-7-7----7----------| 
E-------------------------------------------------------------------------------| 
Verse: D F C Stay in my room D F C inside my home D F is where i go D F C Thinking again D F C about my friends D F where they go D F C Stay in my room D F C inside my home D F is where i go D F C Drinking again D F C without my friends D F no one knows

Compartilhe esta música: novo

QR Code
Copiar