Trem das OnzeCifra Verificada

Adoniran Barbosa

Tom: Am
Intro: Am F7+ E7 Am7 E7(9-)  
     
Am                                            
Não posso ficar nem mais um minuto com você    
                   A7           Dm7                 
Sinto muito amor, mas não pode ser     
Bm7(b5)  E7  Am  
Moro em Jaçanã,     
                    F7+     
Se eu perder esse trem     
        Bm7(b5)           
Que sai agora as onze horas     
 E7           Am    E7  
Só amanhã de manhã.     


Am                                            
Não posso ficar nem mais um minuto com você    
                   A7           Dm7                 
Sinto muito amor, mas não pode ser     
Bm7(b5)  E7  Am  
Moro em Jaçanã,     
                    F7+     
Se eu perder esse trem     
        Bm7(b5)           
Que sai agora as onze horas     
 E7           Am  
Só amanhã de manhã.     


A7 Além disso mulher Dm7 Tem outra coisa, B7 Minha mãe não dorme E7 Enquanto eu não chegar, Bm7(b5) E7 Am Sou filho único Bm7(b5) E7 Am A7 Tenho minha casa para olhar Dm7 E7 Am Sou filho único Bm7(b5) E7 Am E7 Tenho minha casa para olhar
Solo: Am7 Dm7 E7(9-) Am7 Dm7 E7(9-) Am E7 Am Não posso ficar nem mais um minuto com você A7 Dm7 Sinto muito amor, mas não pode ser Bm7(b5) E7 Am Moro em Jaçanã, F7+ Se eu perder esse trem Bm7(b5) Que sai agora as onze horas E7 Am Só amanhã de manhã.
A7 Além disso mulher Dm7 Tem outra coisa, B7 Minha mãe não dorme E7 Enquanto eu não chegar, Bm7(b5) E7 Am Sou filho único Bm7(b5) E7 Am A7 Tenho minha casa para olhar Dm7 E7 Am Sou filho único Bm7(b5) E7 Am A7 Tenho minha casa para olhar
Final: Dm E Am Dm E Am A7 Dm E Am F7+ E7(9-) Am
Dedilhado 


---------------------------------------------------------------- 
----0--1----------1--------------------------------------------- 
-2--------2-----2----------------------------------------------- 
--------------2------------------------------------------------- 
---------------------------------------------------------------- 
-------------1-------------------------------------------------- 


---------------------------------------------------------------- 
----0--1--3--1--------0----------------------------------------- 
-3------------------1------------------------------------------- 
------------------2--------------------------------------------- 
---------------------------------------------------------------- 
----------------0----------------------------------------------- 


----------------------------4--7--5--4--7--------5-------------- 
----------------------3--6---------------------5---------------- 
----------------2--5-------------------------5------------------ 
-------------3-------------------------------------------------- 
-------2--5----------------------------------------------------- 
-0--4--------------------------------------5-------------------- 



---------------------------------------------------------------- 
-1--1--------1--1-----1--1--------1----------------------------- 
-2--2--------2--2-----2--2--------2----------------------------- 
-2-----2-----2--2-----2--2-----2-------------------------------- 
-0--------0--------0--------0----------------------------------- 
---------------------------------------------------------------- 


----0-----------0--------0-----------0-------------------------- 
-1-----1--1--1-----1--1-----1--1--1-----1--1-------------------- 
-2-----2--2--2-----2--2-----2--2--2-----2--2-------------------- 
-2-----2--2--2-----2--2-----2--2--2-----2--2-------------------- 
-0-----0--0--0-----0--0-----0--0--0-----0--0-------------------- 
---------------------------------------------------------------- 

Compartilhe esta música: novo

QR Code
Copiar