Adão Negro

Adão Negro

Tom: Am
Intro: Am Dm

Intro Solo:

e-------------------------------------------------------------------
B--------------------------------------1--------------------1-0-----
G--2-2--0-2-(2-2-2)-0-2-2--0-2-(2-2-2)---2-2--0-2-(2-2-2)-0-----2---
            bem rápido         bem rápido         bem rápido
D-------------------------------------------------------------------
A-------------------------------------------------------------------
E-------------------------------------------------------------------

OU

e-------------------------------------------------------------------
B-------------------------------------------------------------------
G--2-2--0-2-(2-2-2)-0-2-2--0-2-(2-2-2)-5-2-2--0-2-(2-2-2)-0-5-4-2---
            bem rápido         bem rápido         bem rápido
D-------------------------------------------------------------------
A-------------------------------------------------------------------
E-------------------------------------------------------------------

OU

Intro Solo Oitavado:

e-----------------------------------------------8--------------------------8-7----
B-10-10-8-10-(10-10-10)-8-10-10-8-10-(10-10-10)---10-10-8-10-(10-10-10)--8-----10-
             bem rápido              bem rápido              bem rápido
G---------------------------------------------------------------------------------
D---------------------------------------------------------------------------------
A---------------------------------------------------------------------------------
E---------------------------------------------------------------------------------
Am Dm Am Chá, Chá lá lá lá lá lá Dm Am Chá lá lá lá lá lá lá lá Dm Am Dm Chá lá lá lá lá lá lá Am Dm Apartheid disfarçado todo dia Am Dm Quando me olho não me vejo na TV Am Dm Quando me vejo estou sempre na cozinha Am Dm Ou na favela submisso ao poder Am Dm Já fui mucama mas agora sou neguinha Am Dm Minha pretinha nós gostamos de você Am Dm Levante a saia, saia correndo pro quarto Am Dm Na madrugada patrãozinho quer te ver Am Dm Será que um dia eu serei a patroa Am Dm Sonho que um dia isso possa acontecer Am Dm Ficar na sala não ir mais para a cozinha Am Dm Agora digo o que vejo na TV Am Dm Um som negro Am Dm Um Deus negro Am Um Adão negro G Am Um negro no poder (Um índio no poder)

Compartilhe esta música: novo

QR Code
Copiar