Can You See Me

Adam Green

Tom: F
Intro: 
F Am Bb Gm Bb Cm Dm Eb 
e|-----1---1-----0---0----------------------------------------------------------6--| 
B|-------1---------1-------3---3-------3---3--------3---3-----4---4-----6---6---8--| 
G|---2---------2-------------3-----------3------------3---------5---------7-----8--| 
D|-----------------------3-----------5------------3---------5---------7---------8--| 
A|-----------0---------1---------0------------0-1---------3---------5-----------6--| 
E|-1-------------------------------3--------3-----------------------------------x--| 


Bb F Gm Eb Bb Dm F Bb 
e|---------------1---1------------6--------------------------------| 
B|-----3---3-------1-------3---3--8------3---3-----6---6-----------| 
G|-------3-----2-------------3----8--------3---------7-------------| 
D|---3-------------------5--------8----3---------7---------0-------| 
A|-1------------------------------6--1---------5---------3---3--1--| 
E|-----------1---------3----------x--------------------------------| 

F Am Bb Gm In a town, in a city, in an eyeball, on a rock Bb Cm Dm Eb In a fence where a goat was alone by himself Bb F Gm Eb There was a boy Who was there Bb Dm F Bb A boy who built a snowman out of himself F Am Bb Gm I've been popping out of closets in robin hood suits Bb Cm Dm Eb I've been spotted in pictures with Navy recruits Bb F Gm Eb Look at your costume you know that it's true Bb Dm F Bb Any one could pop in as you F Am Bb Gm Try to untie your lips but they were double knotted Bb Cm Dm Eb I tried to break into you brain but all the entrances were rotted Bb F Gm Eb If the moon had minute hands it would have meant a lot Bb Dm F Bb (strum) But God would have made the moon as a clock. (strum chords) Bb Look, look, look at me doing this F7 Look, look, look at me doing that Gm F7 Look, look, look at the way that i am Bb bye bye bye to the crazy ones F7 bye bye bye to the crazy ones Gm F7 bye bye bye to the crazy ones Bb Look, look, look at me doing this F7 Look, look, look at me doing that (2x) Gm F7 Look, look, look at the way that i am (under heavy feedback and distortion) Look, look, look at me doing this Look, look, look at me doing that Look, look, look at the way that i am (one strum per chord for the rest of the song) Bb But if everybody was the best F7 There would be so few of the rest Gm Oh the places where you've never been F7 Oh the world was just a baby then Bb A million ways you learn to cry F7 When the boy's little waves pass you by Gm Oh never to be there again F7 Oh the children where so old-fashioned then Bb Coffins decked out on the street F7 Who's the stranger with the purple feet? Gm Don't i remember him from somewhere F7 before his feet lost his hair? Bb But if everyone is coffin-bound F7 Then i'm so scared of being not around Gm I'm so scared to never make a sound F7 I'm so scared of being underground Bb F Bb Can you see me

Compartilhe esta música: novo

QR Code
Copiar