Worldwide

Adam Again

Tom: F
Intro: F   G   Am   Dm (2x) 

F   G   Am   Dm  


Solo/Riffs: Riff A  
e | -------------------------------------------  
B | -------------------------------------------  
G | ----------5---------7----------(b9)7------- 
D | --3-3-5/7---5-5-7(b9)--7-7-9/11--------8---  
A | -------------------------------------------  
E | ------------------------------------------- 

 Riff B  
e |--------------------------------------------  
B | -------------------------------------------  
G | ---------5----7-5-7(b9)---(b9)(b9)7-5-7-5--  
D | --3----7-----------------------------7-----  
A | -------------------------------------------  
E | ------------------------------------------- 

F G There is a reason Am Dm And I don\'t know what it is F G A bloody season Am Dm Well, I\'ve heard that these things happen A# F Worldwide G C Worldwide Dm A# Don\'t think I\'ll ever understand it F C A Don\'t think it matters if I do Dm A# Three billion people in the world F C And I only know a few Am Dm Worldwide G C Worldwide (whistle) F G Am Dm F G Am Dm A# F It’s worldwide G C Worldwide (electric) F G Tears on the driver\'s side Am Dm His head is in his hands F G Voice of an angel silenced Am Dm At the whim of a mere man A# F It\'s worldwide G C Worldwide Dm A# But we all love that desert thunder F C A We put some stickers on our bumper Dm A# Three billion nothings in the world F C Why should anybody bother? Am Dm Worldwide C Worldwide (Riff A x2 then Riff B x1) Dm A# What about Headman Shabalala? F C A Does anybody care about justice? Dm A# Three billion people in the world F C And his spirit weeps for all of us Am Dm Worldwide C F Worldwide

Compartilhe esta música: novo

QR Code
Copiar