Que Se Dane O MundoCifra Verificada

Adair Cardoso

Tom: G
G C G E que se dane o mundo, e que se dane tudo Am F Eu largo tudo tudo, pra poder te ver C G E se eu não te vejo, morro em desejos Am F Meu dia fica cinza longe de você
Longe de você (base solo 2x) C G Am F (primeiro solo)
1ª parte)  

E|---------------3-----------------------------------|  
B|-------1-3-3/5---5\3-2-2h3~------------------------|  
G|-0h2-2---------------------------------------------|  
D|---------------------------------------------------|  
A|---------------------------------------------------|  
E|---------------------------------------------------|  

2ª parte)  

E|-1p0-----------------------------------------------|  
B|-----3-1-----1-------------------------------------|  
G|---------0h2---------------------------------------|  
D|---------------------------------------------------|  
A|---------------------------------------------------|  
E|---------------------------------------------------|  

(repete a 1ª parte)  

3ª parte)  

E|----5---5-8-7-5------------------------------------|  
B|--5---5---------8-8/10-----------------------------|  
G|------------------------7/9-9\7-5-7-7h5------------|  
D|---------------------------------------------------|  
A|---------------------------------------------------|  
E|---------------------------------------------------| 
(primeira parte) C G Você foi feita pra mim Am F E eu fui feito pra você C G Você nasceu pra me amar Am F E eu nasci pra te querer (pré-Refrão) C G Am Nós somos estrela e céu F C Noite e luar G Am Nós somos abelha e o mel G Amor eu amo te amar
G C G E que se dane o mundo, e que se dane tudo Am F Eu largo tudo tudo, pra poder te ver C G E se eu não te vejo, morro em desejos Am F Meu dia fica cinza longe de você
G C G E que se dane o mundo, e que se dane tudo Am F Eu largo tudo tudo, pra poder te ver C G E se eu não te vejo, morro em desejos Am F Meu dia fica cinza longe de você
Longe de você (repete base solo) (segundo solo)
1ª parte a partir da divisão)  

E|---------------|-3---------------------------------|  
B|-------1-3-3/5-|---5\3-2-2h3~----------------------|  
G|-0h2-2---------|-----------------------------------|  
D|---------------|-----------------------------------|  
A|---------------|-----------------------------------|  
E|---------------|-----------------------------------|  

2ª parte)  

E|-1p0-----------------------------------------------|  
B|-----3-1-----1-------------------------------------|  
G|---------0h2---------------------------------------|  
D|---------------------------------------------------|  
A|---------------------------------------------------|  
E|---------------------------------------------------|  

1ª parte)  

E|---------------3-----------------------------------|  
B|-------1-3-3/5---5\3-2-2h3~------------------------|  
G|-0h2-2---------------------------------------------|  
D|---------------------------------------------------|  
A|---------------------------------------------------|  
E|---------------------------------------------------|  

3ª parte)  

E|----5---5-8-7-5------------------------------------|  
B|--5---5---------8-8/10-----------------------------|  
G|------------------------7/9-9\7-5-7----------------|  
D|---------------------------------------------------|  
A|---------------------------------------------------|  
E|---------------------------------------------------|  

4ª parte)  

E|---------------------------------------------------|  
B|-5h6p5---------------------------------------------|  
G|-------7-5---7p5-----------------------------------|  
D|-----------7---------------------------------------|  
A|---------------------------------------------------|  
E|---------------------------------------------------| 
(segunda parte) C G Eu sou o seu amor Am F E você é a minha paixão C G O cupido acertou Am F Foi uma flecha em dois corações (repete pré-Refrão)
G C G E que se dane o mundo, e que se dane tudo Am F Eu largo tudo tudo, pra poder te ver C G E se eu não te vejo, morro em desejos Am F Meu dia fica cinza longe de você
G C G E que se dane o mundo, e que se dane tudo Am F Eu largo tudo tudo, pra poder te ver C G E se eu não te vejo, morro em desejos Am F G# Meu dia fica cinza longe de você
(Refrão final - 1/2 tom acima)
C# G# E que se dane o mundo, e que se dane tudo A#m F# Eu largo tudo tudo, pra poder te ver C# G# E se eu não te vejo, morro em desejos A#m F# Meu dia fica cinza longe de você
C# G# E que se dane o mundo, e que se dane tudo A#m F# Eu largo tudo tudo, pra poder te ver C# G# E se eu não te vejo, morro em desejos A#m F# Meu dia fica cinza longe de você
C# G# A#m F# Longe de você C# Longe de você

Compartilhe esta música: novo

QR Code
Copiar