Louco Pra Te Amar

Adair Cardoso

Tom: B
		 
Intro: 

      B                 F#            B                  E 
E|-----------------------------------------------------------------| 
B|-2/4-5-5/7-7---------2-2/4-4/2--2/4-5-5/7-7---------2-2/4-4/2p0--| 
G|-------------4-4-1-4------------------------4-4-1-4--------------| 
D|-----------------------------------------------------------------| 
A|-----------------------------------------------------------------| 
E|-----------------------------------------------------------------| 


      B                 F#                  G#m      F# 
E|------------------------------------------------------7h9-9------| 
B|-2/4-5-5/7-7---------2-2/4-4/2----4h5p4--4/2---2/7--9------------| 
G|-------------4-4-1-4-------------------------4-------------------| 
D|-----------------------------------------------------------------| 
A|-----------------------------------------------------------------| 
E|-----------------------------------------------------------------| 


Riff: 

E|--------------------------------| 
B|-0-4h5-4-2-0-2-2/7-7--2-0-2/5-5-| 
G|--------------------------------| 
D|--------------------------------| 
A|--------------------------------| 
E|--------------------------------| 
B F# G#m Você não nota que eu tô sozinho E Querendo amar B F# G#m Tô me sentindo um pássaro sem ninho E Sem asas pra voar... B F# G#m Pare, olhe e note em meu rosto E Entrei em solidão B F# G#m Não vê que eu já tô ficando louco E Pra curtir essa paixão... F# E B Pare de tantos argumentos F# E B (Riff) Sua obsessão é perda de tempo F# Tempo, tempo, tempo E B (Riff) Sem amor, sem amar F# E B F# Tô aqui a te esperar... Refrão: B F# a vida passa e a gente nem vê B E O tempo voa e eu aqui sem você B F# O mundo gira e eu no mesmo lugar G#m F# a te esperar... B F# a vida passa e a gente nem vê B E O tempo voa e eu aqui sem você B F# O mundo gira e eu no mesmo lugar G#m F# a te esperar... louco pra te amar...
Solo: 

      B                 F#            B                  E 
E|-----------------------------------------------------------------| 
B|-2/4-5-5/7-7---------2-2/4-4/2--2/4-5-5/7-7---------2-2/4-4/2p0--| 
G|-------------4-4-1-4------------------------4-4-1-4--------------| 
D|-----------------------------------------------------------------| 
A|-----------------------------------------------------------------| 
E|-----------------------------------------------------------------| 


      B                 F#                  G#m      F# 
E|------------------------------------------------------7h9-9------| 
B|-2/4-5-5/7-7---------2-2/4-4/2----4h5p4--4/2---2/7--9------------| 
G|-------------4-4-1-4-------------------------4-------------------| 
D|-----------------------------------------------------------------| 
A|-----------------------------------------------------------------| 
E|-----------------------------------------------------------------| 
F# E B Pare de tantos argumentos F# E B (Riff) Sua obsessão é perda de tempo F# Tempo, tempo, tempo E B (Riff) Sem amor, sem amar F# E B F# Tô aqui a te esperar... Refrão: B F# a vida passa e a gente nem vê B E O tempo voa e eu aqui sem você B F# O mundo gira e eu no mesmo lugar G#m F# a te esperar... B F# a vida passa e a gente nem vê B E O tempo voa e eu aqui sem você B F# O mundo gira e eu no mesmo lugar G#m F# a te esperar... louco pra te amar... ( B )

Compartilhe esta música: novo

QR Code
Copiar