Princesa

6 Cycle Mind

Tom: D
Intro: 

Rhythm: D C G 

Lead:  
e|------8-----8--10--12--8-----8--10--12--8-----8--10--12--13--12--10--8--| 
B|---8-----8----------------8----------------8----------------------------| 
G|------------------------------------------------------------------------| 
D|------------------------------------------------------------------------| 
A|------------------------------------------------------------------------| 
E|------------------------------------------------------------------------|  

Verse 1: D C G Nakaupo s'ya sa isang madilim na sulok D C Ewan ko ba kung bakit G Sa libu-libong babaeng nandoon D C Wala pang isang minuto G Nahulog na ang loob ko sayo Verse 2: D C G Gusto ko sanang marinig ang tinig mo D Umasa na rin na sana'y C G Mahawakan ko ang palad mo D C Gusto ko sanang lumapit G D-C-G Kung di lang sa lalaking kayakap mo ohhh
D C G Dalhin mo ako sa iyong palasyo D C G Maglakad tayo sa hardin ng iyong kaharian D C Wala man akong pagaari G D Pangako kong habangbuhay kitang pagsisilbihan C G D-C O aking prinsesa ha.. ha.. ha.. G D-C G prinsesa, prinsesa, prinsesa
 Back to Intro or: 

e|---2--4--6--8--6--4--2-----3--2----2--4--6--8--6--4--2-----3--2-----| 
B|------------------------3--------3----------------------3--------3--| 
G|--------------------------------------------------------------------| 
D|--------------------------------------------------------------------| 
A|--------------------------------------------------------------------| 
E|--------------------------------------------------------------------| 

e|---4--6--9--12---| 
B|-----------------| 
G|-----------------| 
D|-----------------| 
A|-----------------| 
E|-----------------| 

Verse 2: D C Di ako makatulog G Naisip ko ang ningning ng iyong mata D C G Nasa isip kita buong umaga buong magdamag D C Sana'y parati kang tanaw G D O ang sakit isipin ito'y isang panaginip C G Panaginip lang
D C G Dalhin mo ako sa iyong palasyo D C G Maglakad tayo sa hardin ng iyong kaharian D C Wala man akong pagaari G D Pangako kong habangbuhay kitang pagsisilbihan C G D C O aking prinsesa ha.. ha.. ha.. G D C G prinsesa, prinsesa, prinsesa
Instrumental: D C G

Compartilhe esta música: novo

QR Code
Copiar