Planeta Sonho

14 bis

Tom: Dm
PLANETA SONHO


INTRO: (Dm  Am  Bb C F Am Dm  Am  Bb  C)
       (Dm  Am  Bb C D  Dm  F C Dm  A/C#  Bb  F  Dm)

e|-----------------------------------------------------------------------
B|-----------------------------------5/6--5------------------------------
G|------------5------------------5----------7-5--------------------------
D|-----7-5-7----7-5------5---7-----7-------------7-5-----5---------7-5-7-
A|--5----------------8-8-------8---------------------8-8---8-7--5--------
E|-------------------------8---------------------------------------------

--------------------------------------------------------------------|
---------------------5-5/6--5-------------------5---6--5------------|
-5-----------------7----------7-5----5--------7---5------7-5--------|
---7-5------5---7------------------7---7-5--------------------7-5---|
--------8-8--------------------------------8----------------------8-|
--------------8-----------------------------------------------------|
Am Bb C Dm Aqui ninguém mais ficará depois do sol Bb F Dm A/C# No final será o que não sei, mas será Bb F Bb F Gm7 C F Tudo demais, nem o bem, nem o mal, só o brilho calmo dessa luz Bb A7 Dm C 21 23 10 11 13 11 O planeta calma será Terra F A7 Dm C O planeta sonho será Terra F Gm Am Dm C Am Gm7 E lá no fim daquele mar a minha estrela vai se apagar C Gm7 C Como brilhou, fogo solto no caos Dm Am Bb C Dm Aqui também é bom lugar de se viver, Bb F Dm A/C# Bom lugar será o que não sei, mas será Bb F Bb F Gm7 C F Algo a fazer, bem melhor que a canção mais bonita que alguém lembrar Bb A7 Dm C 21 23 10 11 13 11 A harmonia será Terra F A7 Dm C A dissonância será bela F Gm Am Dm C Am Gm7 E lá no fim daquele azul os meus acordes vão terminar C Gm7 C Não haverá outro som pelo ar F A7/E Dm C 42 43 30 32 33 32 O planeta sonho será Terra F A7/E Dm C 51 50 63 50 61 A dissonância será bela F Gm Am Dm C Am Gm7 E lá no fim daquele mar a minha estrela vai se apagar Am C Am Gm7 Am C Como brilhou, fogo solto no caos SOLO: (A G/A A G/A) (Dm Am Bb C F Am Dm Am Bb C) (Dm Am Bb C C#/F C# C/F C/E C/D C/Bb)
e|-----------------------------------------------------------------
B|-----------------------------------5/6--5------------------------
G|------------5------------------5----------7-5----5---------------
D|-----7-5-7----7-5------5---7-----7-------------7---7-5----5------
A|--5----------------8-8-------8-------------------------8----8-7--
E|-------------------------8---------------------------------------

------------------------------------------------------------|
----------------------------6-8-9--8-6-6--6---5--------5----|
----------5---------------------------------7---5----5---5--|
---7-5-7----7-5------5---6-------------------------8--------|
5----------------8-8----------------------------------------|
-----------------------8------------------------------------|
F A7/E Dm C 42 43 30 32 33 32 O planeta sonho será Terra F A7/E Dm C 51 50 63 50 61 A dissonância será bela F Gm Am Dm C Am Gm7 E lá no fim daquele mar a minha estrela vai se apagar Am C Am Gm7 Am C Como brilhou, fogo solto no caos
FINAL: (Dm  Am  Bb C F Am Dm  Am  Bb  C)
e|-------------------------------------------------------------|
B|-----------------------------------5/6--5--------------------|
G|------------5------------------5----------7-5----------------|
D|-----7-5-7----7-5------5---7-----7-------------7-5----5------|
A|--5----------------8-8-------8---------------------8----8-7--|
E|-------------------------8-----------------------------------|
(D E F G Bb Ab G)

Compartilhe esta música: novo

QR Code
Copiar