TijolãoCifra de Viola Verificada

Jorge e Mateus

Tom: G
Intro Em7  

 
E|------------------------------------------|  
B|----8-7h8p7-------------------------------|  
G|------------9-7-9-7-9---------------------|  
D|-/9---------------------------------------|  
A|------------------------------------------|  
E|------------------------------------------| 
Primeira Parte Em7 Eu te conheci D9 Depois que a gente largou C9 Sei lá onde é que arrumou G Todo esse ódio de mim Pré-Refrão C9 D9 Agora eu to aqui num bar de corrutela Bm7 Abrindo cerveja com dente Em7 Tentando te passar pra frente Quem dera C9 D9 Porque você não me bloqueou? Em7 Pra eu parar de chorar em cima da tela
C9 Eu vou trocar meu celular D9 Num Nokia tijolão Bm7 Que só manda mensagem Em7 E faz ligação C9 Se eu ver mais um vídeo seu D9 Sem eu, sendo feliz Bm7 Certeza que a minha Em7 Vida vai ta por um triz C9 Me mata não D9 Em7 Essa internet virou arma na sua mão C9 Eu vou trocar meu celular D9 Num Nokia tijolão Bm7 Que só manda mensagem Em7 E faz ligação C9 Se eu ver mais um vídeo seu D9 Sem eu, sendo feliz Bm7 Certeza que a minha Em7 Vida vai ta por um triz C9 Me mata não D9 Em7 Essa internet virou arma na sua mão
Solo C9 D9 Bm7 Em7
 
E|------------------------------------------|  
B|--------8-7-------------------------------|  
G|------------9-7-9~--7-9-7--9-7-9/11-11-11~|  
D|-/9-9-9-----------------------------------|  
A|------------------------------------------|  
E|------------------------------------------|  

E|------------------------------------------|  
B|------------------------------------------|  
G|-7---9---11---7---4-----------------------|  
D|------------------------------------------|  
A|------------------------------------------|  
E|------------------------------------------| 
Pré-Refrão C9 D9 Agora eu to aqui num bar de corrutela Bm7 Abrindo cerveja com dente Em7 Tentando te passar pra frente Quem dera C9 D9 Porque você não me bloqueou? Em7 Pra eu parar de chorar em cima da tela
C9 Eu vou trocar meu celular D9 Num Nokia tijolão Bm7 Que só manda mensagem Em7 E faz ligação C9 Se eu ver mais um vídeo seu D9 Sem eu, sendo feliz Bm7 Certeza que a minha Em7 Vida vai ta por um triz C9 Me mata não D9 Em7 Essa internet virou arma na sua mão C9 Eu vou trocar meu celular D9 Num Nokia tijolão Bm7 Que só manda mensagem Em7 E faz ligação C9 Se eu ver mais um vídeo seu D9 Sem eu, sendo feliz Bm7 Certeza que a minha Em7 Vida vai ta por um triz C9 Me mata não D9 Em7 Essa internet virou arma na sua mão
 
E|------------------------------------------|  
B|-------8-7h8p7----------------------------|  
G|---------------9-7-9~-7-9-7-9-7-9/11-11-11|  
D|/9-9-9------------------------------------|  
A|------------------------------------------|  
E|------------------------------------------| 
C9 Me mata não D9 Em7 Essa internet virou arma na sua mão
 
E|------------------------------------------|  
B|-10---------15--13-12h13p12---------------|  
G|----11h12-------------------14-12---------|  
D|----------------------------------14-12-14|  
A|------------------------------------------|  
E|------------------------------------------|

Compartilhe esta música: novo

QR Code
Copiar