Good riddance (time of your life)Cifra de Viola Verificada

Green Day

Tom: G
Intro.:  G   G   C9   D  (2x) (Picking) 
 
   --*Picking*-- 
 
G 
Another turning point 
  C9                 D 
a fork stuck in the road. 
G 
Time grabs you by the wrist 
  C9                  D 
directs you where to go. 
Em          D            C9 
So make the best of this test 
              G 
and don't ask why. 
Em         D 
It's not a question 
      C9                 G 
but a lesson learned in time. 
 
 
     Em              G 
It's something unpredicatable 
    Em              G  
but in the end it's right. 
  Em               D            G 
I hope you had the time of your life. 
 
 
   --*Strumming*-- 
 
(G  C9 D) 
 
G 
So take the photographs 
     C9                   D 
and still frames in your mind. 
G 
Hang it on a shelf 
        C9               D 
of good health and good time. 
Em         D 
Tattoos of memories 
     C9            G 
and dead skin on trial. 
Em            D 
For what it's worth, 
        C9             G 
it was worth all the while. 
 
 
     Em              G 
It's something unpredicatable 
    Em              G  
but in the end it's right. 
  Em               D            G 
I hope you had the time of your life. 
 
       4X                2X 
(G  C9 D) - (Em D C9 G)  
 
 
     Em              G 
It's something unpredicatable 
    Em              G  
but in the end it's right. 
  Em               D            G 
I hope you had the time of your life. 
 
    2X 
(G  C9 D) 
    
 
   --*Picking*-- 
 
     Em              G 
It's something unpredicatable 
    Em              G  
but in the end it's right. 
  Em               D            G 
I hope you had the time of your life. 
 
    2X 
(G  C9 D)    G 
 
 
 
 
-======- 
 
Another turning point; a fork stuck... 
|-------------------------------------------------| 
|-----2-----------2-----------2-----------3-------| 
|-------0---0-------0---0-------0---0---2---2---2-| 
|---0-----0-----0-----0-----0-----0---0-------0---| 
|-------------------------3-----------------------| 
|-3-----------3-----------------------------------| 
 
So make the best of this test, and... 
|-------------------------| 
|-----0-----------2-------| 
|-------0---0-------0---0-| 
|---2-----2-----0-----0---| 
|-------------------------| 
|-0-----------3-----------| 
 
|-------------------------| 
|-----1-----------2-------| 
|-------0---0-------0---0-| 
|---2-----2-----0-----0---| 
|-3-----------------------| 
|-------------3-----------| 
 
It's something unpredicatable... 
|-------------------------| 
|-----0-----------2-------| 
|-------0---0-------0---0-| 
|---2-----2-----0-----0---|repetir 2x 
|-------------------------| 
|-0-----------3-----------| 
 
|-------------------------------------| 
|-----0-----------3-----------2-------| 
|-------0---0---2---2---2-------0---0-| 
|---2-----2---0-------0-----0-----0---| 
|-------------------------------------| 
|-0-----------------------3-----------| 

Compartilhe esta música: novo

QR Code
Copiar