Melhor Assim

Gram

Tom: D
Intro 2x: 
 
   D       D7+     D        D7+ 
e|---2--2--2--2--2--2--2--2---| 
B|-3--3--2--2--3--3--2--2-----| 
G|-------------------------------| 
 
    F              A 
G|--2--~~---------6--~~-------| 
D|--3--~~---------7--~~-------| 
A|--3--~~---------7--~~-------| 
E|-------------------------------| 
 
    E     Esus4              E        Esus4 
e|--4---4/5-5-5-5---5-5-5---4---4/5-5-5-5---| 
B|------------------------------------------------|
D#m Bb D#m Se a famosa atriz, diz que funcionou tão bem Bb D#m Bb D#m Se aquele grande autor escreve que é melhor assim G G# D#m Você engole só o que lhe convém B (Cm C#m7 Dm) Pra cuspir sua vida em mim D#m Bb D#m Enquanto escolhe a cor, é pra eu não brilhar Bb D#m Bb D#m Você é mais comum do seu mundo tão feliz G G# D#m Mas se diz madura pois viveu B (Cm C#m7 Dm) É a maior mentira que eu vi A Sendo assim C#m7 Dm Eu não quero mais pedir permissão pra respirar G# E me inspirei ainda mais Fm A sua festa é um favor F#m7 Pois ninguém me convidou (Dm) Melhor pra mim D#m Bb D#m Queria ser doutor pra te salvar com vida Bb D#m Bb D#m Mas pro seu tempo eu sou horário de visita G G# D#m Você entende só o que lhe convém B (Cm C#m7 Dm) Não sou complicado entender A Mesmo assim C#m7 Dm Eu não quero mais pedir permissão pra respirar G# E me inspirei ainda mais Fm Não me atrase por favor F#m7 Pois ninguém me convidou (Dm) Melhor assim

Compartilhe esta música: novo

QR Code
Copiar