Ouvi DizerCifra de Cavaquinho Verificada

Melim

Tom: D
Intro  D9  F#m7  G7M  Gm   
         D9  F#m7  G7M  Gm   

  
E|--------------------|--------------------------------|   
B|--7-7-7-7-8-10------|-------7-7------------7-7---8---|   
G|---------------7-9--|---7-9-----9-7----7-9-----9-----|   
D|--------------------|--------------------------------|   
A|--------------------|--------------------------------|   
E|--------------------|--------------------------------| 
D9 F#m7 Ah, se eu acordasse todo dia com o seu bom dia G7M De tanto café na cama faltariam xícaras Gm D9 Me atrasaria, só pra ficar de preguiça F#m7 Se toda arte se inspirasse em seus traços G7M Gm Então qualquer esboço viraria um quadro Monalisa Em7 Com você tudo fica tão leve F#m7 Que até te levo na garupa da bicicleta Bm7 O preto e branco tem cor A vida tem mais humor A7 E pouco a pouco o vazio se completa Em7 O errado se acerta O quebrado conserta F#m7 E assim tudo muda mesmo sem mudar G A paz se multiplicou Gm Que bom que você chegou pra somar
G7M F#m7 Ouvi dizer que existe paraíso na terra Em7 E coisas que eu nunca entendi D7M Coisas que eu nunca entendi D9 D/F# G7M F#m7 Só ouvi dizer que quando arrepia já era Em Coisas que eu só entendi D7M Quando eu te conheci
  
E|--------------------|--------------------------------|   
B|--7-7-7-7-8-10------|-------7-7------------7-7---8---|   
G|---------------7-9--|---7-9-----9-7----7-9-----9-----|   
D|--------------------|--------------------------------|   
A|--------------------|--------------------------------|   
E|--------------------|--------------------------------| 
( D9 F#m7 G7M Gm ) Em7 Com você tudo fica tão leve F#m7 Que até te levo na garupa da bicicleta Bm7 O preto e branco tem cor A vida tem mais humor A7 E pouco a pouco o vazio se completa Em7 O errado se acerta O quebrado conserta F#m7 E assim tudo muda mesmo sem mudar G A paz se multiplicou Gm Que bom que você chegou pra somar
G7M F#m7 Ouvi dizer que existe paraíso na terra Em7 E coisas que eu nunca entendi D7M Coisas que eu nunca entendi D9 D/F# G7M F#m7 Só ouvi dizer que quando arrepia já era Em Coisas que eu só entendi D7M Quando eu te conheci
D9 F#m7 G7M Gm6 D9 F#m7 G7M Gm6 D7M
  
E|--------------------|--------------------------------|----------|   
B|--7-7-7-7-8-10------|-------7-7------------7-7---8---|------7---|   
G|---------------7-9--|---7-9-----9-7----7-9-----9-----|--7-9-----|   
D|--------------------|--------------------------------|----------|   
A|--------------------|--------------------------------|----------|   
E|--------------------|--------------------------------|----------|   

E|--------------------|--------------------------------|---------|   
B|--7-7-7-7-8-10------|-------7-7------------7-7---8---|---------|   
G|---------------7-9--|---7-9-----9-7----7-9-----9-----|--7-9-6--|   
D|--------------------|--------------------------------|---------|   
A|--------------------|--------------------------------|---------|   
E|--------------------|--------------------------------|---------|

Compartilhe esta música: novo

QR Code
Copiar