Como Vai Você

Maria Bacana

Tom: F#
INTRO -  
a afinação é uma nota abaixo... exemplo... a 6ª corda não é E... é D 
 
e||-----------------------------------------------------------------|| 
B||-----------------------------------------------------------------|| 
G||-----------------------------------------------------------------|| 
D||---------------------------------------------------7s--4---7s--4-|| (4x) 
A||-5s--7---5s--7-----------5s--7--5s--7--------------5s--2---5s--2-|| 
E||----------------0--0--0-----------------0--0--0------------------|| 
 
RIFF 2 
e||--------------------------------|| 
B||--------------------------------|| 
G||--------------------------------|| 
D||--------------------------------|| (2x) 
A||-3-2-0--2--3--2--0--2-----------|| 
E||--------------------------------||
F# E Castelo de areia e água F# E Riff 2 Castelos que caem com um simples sopro F# E Depois do vento não fica nada F# E Riff 2 Depois do vento só restam seus ideais
G A Como vai você? E E como vão seus ideais? E Você tem algum ideal? G A Como vai você? E Na noite fria e no dia a dia? E Não deixe o sonho congelar G A B Como vai você? Como vai você?
INTRO (2x) F# E Eles tentam arrancar seu couro F# E Riff 2 As vezes conseguem com um simples sopro F# E Estamos todos no mesmo barco F# E Riff 2 Preste atenção na linha do horizonte REFRÃO INTRO F# E Lá vem vindo as grandes ondas F# E Riff 2 Vendavais ideais e calmaria F# E Lá vem vindo as grande F# E Riff 2 Navegue nelas pra não se afogar REFRÃO

Compartilhe esta música: novo

QR Code
Copiar