Music

John Miles

Tom: E
Intro : E 
 
E		F#m/E 
Music was my first love 
B/D#		A/C# 
and it will be my last. 
E/B		F#/A# 
Music of the future 
A/B		B 
and music of the past 
 
E		   F#m/E 
To live without my music 
B/D#		       A/C# 
would be impossible to do. 
E/B		  F#/A# 
In this world of troubles, 
A/B	          B7 
my music pulls me through 
 
 
Instrumental 1 : play 4 times (up tempo) 
 
E|-0-2-3-2-0+0-0-2-3-0-|-2-3-2-0-0-2-3-0-2-| 
B|---------------------|-------------------| 
G|-----0-----------0---|---0---------0-----| 
D|-2-4---4-2+2-2-4---2-|-4---4-2-2-4---2-4-| 
A|---------------------|-------------------| 
E|---------------------|-------------------| 
 
|:      Em                   Em 
 
 
 
E|-3-5-7+7-5-3-2-0-2-3-|-2-0-0-2-3---------| 
B|-----0+0-------------|-------------------| 
G|-0---------0-------0-|---------0---------| 
D|---7-----7---4-2-4---|-4-2-2-4-----------| 
A|---------------------|-------------------| 
E|---------------------|-------------------| 
 
         Cmaj7                Em :| 
 
 
Instrumental 2 : play 5 times (up tempo) 
Play bass E 
 
E|-------12-------10|-------12----10--12| 
B|-------12-------10|-------12----10--12| 
G|-------12-------11|-------12----11--12| 
D|------------------|-------------------| 
A|------------------|-------------------| 
E|------------------|-------------------| 
         Em      D/E        Em    D/E Em
Instrumental 3: play 5 times (slowly) |: E5 (no3) | E5 | E5/F | E5/F :| | E5/F | E5 | E5/D# | E5/D | E5/C# | E5/C | and music of the past Instrumental 4: slowly | Em | D/E | Em | A/E | | Em | D/E | C/D | D D7sus4 | C6/G G | G | | B7 G B7 | B7 | Em7 | Am ad9 | C/D | D | Instrumental 5 : play 3 times (up tempo) |: Em D/E | Em | Em D/E | Em | Cmaj7 D/C | Am7 | Bsus B7 Bsus B7 :| | Em D/E | Em | Em D/E | Em | Cmaj7 D/C | Am7 | B A/B | B7 | E F#m/E Music was my first love B/D# A/C# and it will be my last. E/B F#/A# Music of the future A/B B and music of the past. E F#m/E To live without my music B/D# A/C# would be impossible to do. E/B F#/A# In this world of troubles, A/B (outtro) my music pulls me through. Outtro : | E | F#/E | A/E Am/E | E | Chords: A/B X2222X A/C# X4222X B/D# X6444X B7/9- X21212 Bsus X24452 E5 022X00 E5/F 1X3X00 F#/A# X1432X F#m/E 042222

Compartilhe esta música: novo

QR Code
Copiar