Tom: D
 


Intro, verses and interludes: 


e|-----4-------4-------4--------6---------7---------7--------7---------7-----| 
B|---0-------0-------0--------0---------0---------0--------0---------0-------| 
G|---------------------------------------------------------------------------| 
D|---------------------------------------------------------------------------| 
A|---------------------------------------------------------------------------| 
E|-4----4-4------4-4------4/6-------6/7-------7-7------7-7-------7-7---------| 


e|-------2---------2---------2---------2-------0-------0-------0--------0----| 
B|-----0---------0---------0---------0-------0-------0-------0--------0------| 
G|---------------------------------------------------------------------------| 
D|---------------------------------------------------------------------------| 
A|---------------------------------------------------------------------------| 
E|-7\2-------2-2-------2-2-------2-2-----2-0-----0-0-----0-0------0-0--------| 



Chorus: 

e|-----0-------0-------7-------7----------2-------2-------2-------2----------| 
B|---0-------0-------0-------0----------0-------0-------0-------0------------| 
G|---------------------------------------------------------------------------| 
D|---------------------------------------------------------------------------| 
A|---------------------------------------------------------------------------| 
E|-0-----0-0-----0-7-----7-7--------7\2-----2-2-----2-2-----2-2--------------| 


e|-------0-------0-------7-------7----------2-------2-------2-------2--------| 
B|-----0-------0-------0-------0----------0-------0-------0-------0----------| 
G|---------------------------------------------------------------------------| 
D|---------------------------------------------------------------------------| 
A|---------------------------------------------------------------------------| 
E|-2-0-----0-0-----0-7-----7-7--------7\2-----2-2-----2-2-----2-2------------| 

e|-------0-------0-------7-------7----------2-------2-------2-------2--------| 
B|-----0-------0-------0-------0----------0-------0-------0-------0----------| 
G|---------------------------------------------------------------------------| 
D|---------------------------------------------------------------------------| 
A|---------------------------------------------------------------------------| 
E|-2-0-----0-0-----0-7-----7-7--------7\2-----2-2-----2-2-----2-2------------| 


                                      |(Interlude) 
e|-------0--------0-------0-------2--------4-------4-------4-------6-------7-| 
B|-----0--------0-------0-------0--------0-------0-------0-------0-------0---| 
G|---------------------------------------------------------------------------| 
D|---------------------------------------------------------------------------| 
A|---------------------------------------------------------------------------| 
E|-2-0------0-0-----0-0-----0-2------2-4-----4-4-----4-4-----4/6-----6/7-----| 


e|-------7---------7---------7---------2-------2-------2-------2--------0----| 
B|-----0---------0---------0---------0-------0-------0-------0--------0------| 
G|---------------------------------------------------------------------------| 
D|---------------------------------------------------------------------------| 
A|---------------------------------------------------------------------------| 
E|-7-7-------7-7-------7-7-------7\2-----2-2-----2-2-----2-2------2-0--------| 


e|-------0---------------0---------------0-----------------------------------| 
B|-----0---------------0---------------0-------------------------------------| 
G|---------------------------------------------------------------------------| 
D|---------------------------------------------------------------------------| 
A|---------------------------------------------------------------------------| 
E|-0-0-------------0-0-------------0-0---------------------------------------| 

Bridge: G#m E Spirit lead me where my trust is without borders B Let me walk upon the waters F# Wherever You would call me G#m E Take me deeper than my feet could ever wander (2x) B And my faith will be made stronger F# In the presence of my Savior E B Spirit lead me where my trust is without borders F# Let me walk upon the waters C#m Wherever You would call me E B Take me deeper than my feet could ever wander F# And my faith will be made stronger C#m In the presence of my Savior Chorus: E B F# And I will call upon Your Name E B F# And Keep my eyes above the waves E When oceans rise B F# My soul will rest in Your embrace E F# G#m For I am Yours and You are mine

Compartilhe esta música: novo

QR Code
Copiar