RaridadeCifra de Cavaquinho Verificada

Anderson Freire

Tom: Eb
   

Intro: G7M  D9/F#  Em7  D7M  G7M  D9/F#  Em7            


D9           A9/C#           Bm7/11   
 Não consigo ir além do teu olhar   
              A6            G7M   
Tudo o que eu consigo é imaginar   
          D9/F#      Em7        A4  A   
A riqueza que existe dentro de você   
D9            A9/C#        Bm7/11   
  O ouro eu consigo só admirar   
                  A6             G7M   
Mas te olhando eu posso a Deus adorar   
         D9/F#         Em7      A4  A  Bm7/11   
Sua alma é um bem que nunca envelhecerá   


         G7M                  
O pecado não consegue esconder   
D9              A9             Bm7/11   
A marca de Jesus que existe em você   
            G7M                D9   
O que você fez ou deixou de fazer   
                 A9                Em7   
Não mudou o inÍcio, Deus escolheu você   
         D9/F#           G7M             Bm7/9   
Sua raridade não está naquilo que você possui   
               Em7   
Ou que sabe fazer   
           D9/F#    	     G7M     
Isso é mistério de Deus com você   


D9 D7M Bm7/11 Você é um espelho que reflete a imagem do Senhor A6 G7M Não chore se o mundo ainda não notou D9/F# Em7 A4 Já é o bastante Deus reconhecer o seu valor A D9 A9/C# Bm7/11 Você é precioso mais raro que o ouro puro de Ofir A6 G7M Se você desistiu Deus não vai desistir D9/F# Em7 Ele está aqui pra te levantar A4 A Em7 Se o mundo te fizer cair
D9 A9/C# Bm7/11 O ouro eu consigo só admirar A6 G7M Mas te olhando eu posso a Deus adorar D9/F# Em7 A4/7 A7 Bm7/11 Sua alma é um bem que nunca envelhecerá G7M O pecado não consegue esconder D9 A9 Bm7/11 A marca de Jesus que existe em você G7M D9 O que você fez ou deixou de fazer A9 Em7 Não mudou o inÍcio, Deus escolheu você D9/F# G7M Bm7/9 Sua raridade não está naquilo que você possui Em7 Ou que sabe fazer D9/F# G7M Isso é mistério de Deus com você
D9 A9/C# Bm7/11 Você é um espelho que reflete a imagem do Senhor A6 G7M Não chore se o mundo ainda não notou D9/F# Em7 A4 Já é o bastante Deus reconhecer o seu valor A D9 A9/C# Em7 Você é precioso mais raro que o ouro puro de Ofir A6 G7M Se você desistiu Deus não vai desistir D9/F# Em7 Ele está aqui pra te levantar A4 A Em7 Se o mundo te fizer cair
Base Solo: Em7 D9/F# G7M D4 D D4 E7 Em7 D9/F# G7M A4 A B4
 
---------------------------------------------------------------- 
---------------------------------------------------------------- 
--------3--5/10b12r10--10--12b13--13r12\-5--7--8~--------------- 
--3--5---------------------------------------------------------- 
---------------------------------------------------------------- 
---------------------------------------------------------------- 


---------------------------------------------------------------- 
------------11--8b9r8--8b9r8------------------------------------ 
---------8--------------------15\8--10b12b13r10----------------- 
--8--10--------------------------------------------------------- 
---------------------------------------------------------------- 
---------------------------------------------------------------- 


---------------------------------------------------------------- 
------------------18b20r18--20b21r20--13--15--16~--------------- 
----------15--17------------------------------------------------ 
--15--17-------------------------------------------------------- 
---------------------------------------------------------------- 
---------------------------------------------------------------- 


---------------------------------------------------------------- 
-------13-16-15b16-15~----------------------18--16b18r16-------- 
----13-----------------------15-17-------15--------------------- 
-13--------------------15-17-------15-17------------------------ 
---------------------------------------------------------------- 
---------------------------------------------------------------- 


--15-----------15----------------------------------------------- 
--18b20r18b20--18b20r18b20-------------------------------------- 
---------------------------------------------------------------- 
---------------------------------------------------------------- 
---------------------------------------------------------------- 
---------------------------------------------------------------- 
E B4/D# C#m7 Você é um espelho que reflete a imagem do Senhor B4 A9 Não chore se o mundo ainda não notou E/G# F#m7(11)/C# Já é o bastante Deus reconhecer o seu valor B4 E/G# C#m7 Você é precioso mais raro que o ouro puro de Ofir B4 A9 Se você desistiu Deus não vai desistir E/G# F#m7(11)/C# Ele está aqui pra te levantar B4 F#m7(11)/C# A9 Se o mundo te fizer cair E B4/D# C#m7 Você é um espelho que reflete a imagem do Senhor B4 A9 Não chore se o mundo ainda não notou E/G# F#m7(11)/C# Já é o bastante Deus reconhecer o seu valor B4 E/G# C#m7 Você é precioso mais raro que o ouro puro de Ofir B4 A9 Se você desistiu Deus não vai desistir E/G# F#m7(11)/C# Ele está aqui pra te levantar B4 A9 E/G# F#m7(11)/C# Se o mundo te fizer cair
Final: E5+ A9 E/G# F#m7/C# E

Compartilhe esta música: novo

QR Code
Copiar