Stormy MondayCifra de Cavaquinho Verificada

Allman Brothers Band

Tom: Am
Intro: Am7 Bm7 Bbm7 Am7 Ab7 G7 C7 G7 D5+ 
  
(Riff)
---------------------------------------------------------------- 
-3--3---2--3---4--4---6--3---------3---------------------------- 
-2--2---1--2---3--3---3--2-------3------------------------------ 
-3--3---2--3---4--4---4--3-----4-------------------------------- 
----------------------------/5---------------------------------- 
---------------------------------------------------------------- 

-------------5\3--------------------------10b----10b------------ 
----5\3---------------5\3---3--3--2-2--3--11b----11b------------ 
----------3/5-\3------------3--2--1-1--2------12-----12--3--3--- 
-3/5-\3------------3/5-\3---4--3--2-2--3-----------------2--2--- 
---------------------------------------------------------3--3--- 
---------------------------------------------------------------- 

----8\6--6---6----5h6p5--3-------------------------------------- 
---------------------------------------5\3---------------------- 
-6/9-\7----7---7--5h7p5--3---3--3------------------------------- 
-----------------------------2--2---3/5-\3---------------------- 
-----------------------------3--3------------------------------- 
---------------------------------------------------------------- 

--------------------------3-3-------3--------------------------- 
-5--7--6--5--5-5--4--4-4--3-3-------3----------3------5\3------- 
-5--7--6--5--5-5--5--5-5--4-4--3-3--4--------3------------------ 
-5--7--6--5--5-5--4--4-4--3-3--2-2--3------4-------------------- 
-------------------------------3-3-----3/5---------3/5-\3------- 
-5--7--6--5--5-5--4--4-4--3-3-------3--------------------------- 
G7 C7 G7 Abm7 G7 They call it stormy Monday, but Tuesday's just as bad C7 G7 Am7 Bm7 Bbm7 Am7 They call it stormy Monday, but Tuesday's just as bad Am7 Ab7 G7 C7 G7 D5+ Lord and Wednesday's worse, Thursday's oh so sad G7 C7 G7 Ab7 G7 The eagle flies on Friday, Saturday I go out to play C7 G7 Am7 Bm7 Bbm7 Am7 The eagle flies on Friday, Saturday I go out to play Am7 Ab7 G7 C7 G7 D5+ Sunday I go to church, I get down to pray G7 C7 G7 Ab7 G7 Lord have mercy, lord have mercy on me C7 G7 Am7 Bm7 Bbm7 Am7 Lord have mercy, lord have mercy on me Am7 A7 G7 C7 G7 D5+ You know I tryin', tryin' to find my baby Ab7 G7 C7 G7 D5+ Won't someone please send her home to me Solo G7 C7 G7 Ab7 G7 C7 G7 Am7 Bm7 Bbm7 Am7 Ab7 G7 C7 G7 D5+ G7 C7 G7 C7 G7 Am7 Bm7 Bbm7 Am7
--------------------------------10------------------------------ 
-10b12r10-10b12-12r10p8~--10b12----8h10--10b12r10p8h10---------- 
---------------------------------------------------------------- 
---------------------------------------------------------------- 
---------------------------------------------------------------- 
---------------------------------------------------------------- 

-----------10-10b12-12r10--------------------------------------- 
--8--10b12----------------10b12-10b13--------------------------- 
---------------------------------------------------------------- 
---------------------------------------------------------------- 
---------------------------------------------------------------- 
---------------------------------------------------------------- 

-------------------------------------------------------12------- 
-10b12-8~------8-10b12-10b13-8-10---11---8-10-------15---------- 
---------9-4/9--------------------9----9------14b16-------14b16- 
---------------------------------------------------------------- 
---------------------------------------------------------------- 
---------------------------------------------------------------- 

---------------------------------------------------------------- 
-15b17-15--------------------------------------15--------------- 
----------14b16-----------12-14b16-14b16-14b16----14b16--------- 
----------------14~--3/14--------------------------------------- 
---------------------------------------------------------------- 
---------------------------------------------------------------- 

---------------------------------------------------------------- 
-17b19-17-17b19-17b19-17b19-17---------------------------------- 
-------------------------------15r14-12------------------------- 
---------------------------------------------------------------- 
---------------------------------------------------------------- 
---------------------------------------------------------------- 

---------------------------------------------------------------- 
---8-10-10b12r10b12-10b12-12r10-8------------------------------- 
-9--------------------------------12\7-------------------------- 
---------------------------------------------------------------- 
---------------------------------------------------------------- 
---------------------------------------------------------------- 

------------------------------------10b12-10-------------------- 
-----8-b12r10p8---11b13--b12r10p8------------8--b12r10p8-------- 
-3/9------------9-----------------9----------------------------- 
---------------------------------------------------------------- 
---------------------------------------------------------------- 
---------------------------------------------------------------- 

-------10-10b12-10------------10b12-7-10-10b12-10--------------- 
-10b12-----------------8-10-8----------------------------------- 
-------------------3/9------------------------------------------ 
---------------------------------------------------------------- 
---------------------------------------------------------------- 
---------------------------------------------------------------- 

-12b14-12------------------------------------------------------- 
----------b12r10p8-----8-10-8----------------------------------- 
-------------------3/9------------------------------------------ 
---------------------------------------------------------------- 
---------------------------------------------------------------- 
---------------------------------------------------------------- 

--------------10b12-10b12--7-10-10b12-10--12b14-12-------------- 
--------8-8-8---------------------------------------11b13-11-8~- 
------9--------------------------------------------------------- 
-3/10----------------------------------------------------------- 
---------------------------------------------------------------- 
---------------------------------------------------------------- 
  
-----15----18-18b20-18b20-18b20-15~----------------------------- 
-/17----17--------------------------18-------------------------- 
---------------------------------------------------------------- 
---------------------------------------------------------------- 
---------------------------------------------------------------- 
---------------------------------------------------------------- 

----15-18-18b20-18b20-18b20-15-15----15-17b19-15-17b19-15-17b19- 
/17-------------------------------18---------------------------- 
---------------------------------------------------------------- 
---------------------------------------------------------------- 
---------------------------------------------------------------- 
---------------------------------------------------------------- 

Compartilhe esta música: novo

QR Code
Copiar